Supercell - My Dearest Chords & Tabs

 

My Dearest Chords & Tabs

Supercell Chords & Tabs

Version: 1 Type: Bass Tab 0 ratings
1 star 2 stars 3 stars 4 stars 5 stars
comments

My Dearest Bass Tab

   
Song: My Dearest
Artist: Supercell
Tabbed By : ChaelMi
e-mail: ikel_22@yahoo.com


(00:11) Intro
|----------------------------------|------------------------------------|
|----------------------------------|------------------------------------|
|----------------------------------|-----------------------------10[8x]-|
|-5[16x]-1[16x]-3[16x]-8[8x]-7[8x]-|-5[16x]-0[16x]-1[16x]-3[8x]/--------|


(00:57) Verse I
|--------------------------------------------|
|--------------------------------------------|
|-3--33-------------445--55---------------10-|
|------0--235--553---------0--001--113--3/---|

(01:21) 
|------------------------------------------------------------------------|
|------------------------------------------------------------------------|
|--------------------------------------------5[16x]-8[16x]--------10[8x]-|
|-1[16x]-3[16x]-5[16x]-0[16x]--1[16x]-0[16x]---------------3[12x]/-------|


(01:54) Pre-Chorus I
|-----------------------------------------------------------------|
|-----------------------------------------------------------------|
|-/8-10-11-12-10-----------------------------------------/12\--15-|
|----------------\1[8x]-3[8x]-5[8x]-0[8x]-1[8x]-3333-5555---------|


(02:12) Chorus I
|-----------------------------|----------------------------------------------|----------|
|-----------------------------|----------------------------------------------|----------|
|-----------------------------|---------------5[8x]-7[8x]-------------10[4x]-|-5---1010-|
|-1[16x]-3[16x]-5[16x]-8[16x]-|-1[16x]-5[16x]-------------1[8x]-3[4x]/-------|--01------|


(02:40) Verse II
|--------------------------------------------------------|
|-------------------------------12-----------------------|
|-3--33--------12-----445---5/12--127---7----8------1210-|
|------0--235----123---------------------\1---\3--3/-----|

[ Tab from: http://www.guitartabs.cc/tabs/s/supercell/my_dearest_btab.html ]
(03:08) Pre-Chorus II
|---------------12h1412----------------------------------------------------------|
|------------910-------89---------------------------------------------------17---|
|-/8-10-11-12------------9-----------------------------------------/12\--/15--15-|
|--------------------------\1[8x]-3[8x]-5[8x]-0[8x]-1[8x]-3333-5555--------------|


(03:26) Chorus II
|-----------------------------------|
|-----------------------------------|
|--------/10[16x]\-/12[16x]-15[16x]-|
|-1[16x]----------------------------|

|--------------------------------------------------------------------|
|--------------------------------------------------------------------|
|---------------12[9x]-101212----------5[8x]-7[8x]-8-3--------10[4x]-|
|-1[10x]-13[6x]---------------1012-810-----------------5-3333/-------|


(03:49) Instrumental
|------------------------------------------------------------------------------|
|------------------------------------------------------------------------------|
|-----------------------/1215-1215-------12---------------------------10-12-15-|
|-1[16x]-3[16x]-5[16x]-8-----------121415--1512--1[16x]-0[16x]-1[16x]/---------|


(04:35) Bridge
|---------------------------------------------------------------|
|--------------------------------79------1012------12--1715-----|
|---10-----7-------------------79----1012------1214--------1715-|
|-1/--10-5----1[8x]-3333-5555-----------------------------------|


(04:46) Chorus III
|--------------------------------------------------|
|--------------------------------------------------|
|---------------101010-------------/151515-/151515-|
|-1[16x]-3[12x]/-------5[16x]-8[8x]----------------|

|-------------------------------------------------------|--------|
|-------------------------------------------------------|--------|
|--------/101212---------------5[8x]-7[8x]-8[8x]-10[8x]-|-5------|
|-1[8x]--------1012-810-5[16x]--------------------------|--01-33-|


(05:15) Outro
|-----------|------------|----|
|-----------|------------|----|
|-3~/15-975-|-3~/9h10/12-|-3~-|
|-----------|------------|----|


| /  slide up
| \  slide down
| h  hammer-on


Please rate and comment!
Suggestions are welcome.
Comments