Super Furry Animals - Rings Around The World Chords & Tabs

 

Rings Around The World Chords & Tabs

Super Furry Animals Chords & Tabs

Version: 1 Type: Tab 0 ratings
1 star 2 stars 3 stars 4 stars 5 stars
comments

Rings Around The World Tab

   
rings around the world(drawing)



by new york city cop  (new_york_city_cop@hotmail.com)



this song is played with the chords

B  (799877)
E  (022100)
F# (244322)

riff played through the whole song



E|----------------------------|
B|----------------------------|
G|----------------------------|
D|--9--9--9---9--9--9--9--9---|
A|--9--9--11--9--12-9--11-9---|
E|--7--7--7---7--7--7--7--7---|

E|---------------------------|
B|---------------------------|
G|---------------------------|
D|--2--2--2---2--2--2--2--2--|
A|--2--2--4---2--5--2--4--2--|
E|--0--0--0---0--0--0--0--0--|

E|---------------------|
B|---------------------|
G|---------------------|
D|--4--4--4---4--4--4--|
A|--4--4--6---4--6--4--|
E|--2--2--2---2--2--2--|



BASS LINE

G|--------------------------------------|
D|--------------------------------------|
A|------7h9------7h9------7h9------7h9--|
E|--7-7-----7-7------7-7------7-7-------|

G|------------------------------------------|
D|------------------------------------------|
A|-------0h2-------0h2-------0h2-------0h2--|
E|--0-0-------0-0-------0-0------0-0--------|
[ Tab from: http://www.guitartabs.cc/tabs/s/super_furry_animals/rings_around_the_world_tab.html ]
G|-------------------------------------|
D|-------------------------------------|
A|------2h4------2h4------2h4------2h4-|
E|--2-2-----2-2------2-2------2-2------|




LYRICS:


B                           
You expose the film in me
E                           F#(THE CHORD CHANGE IS ROUND ABOUT HERE)             
We're drawing rings around the world
B
Sooner or later we will melt together
E                     F#
And draw rings around the world
E                       F#
With all those meteoric stones
E                              F#
And all those sheep they never cloned
Okay

I'm glowing radioactive
We draw beams around the world
Wish you could see us when we're at our best now
We draw rings around the world
With cans of Post Water in tow
We're gonna vaporize your soul
Okay

Earth to become Saturn II
With all those rings around the world
Tetsuo II became me and you
With all those rings around the world
And all those body hammer blows
We're drawing rings around the world
Okay

B
Ring! Ring!
(Hello?)
B
Ring! Ring!
(Hello?)
E               F#
Rings around the world
(Rings around the world) (X7)



I THINK THAT IS HOW IT IS PLAYED. MAIL ME IF ANYTHING IS WRONG.  
THANX AND LET THE SUPER FURRIES ROCK
Comments