Super Furry Animals - Northern Lites Chords & Tabs

 

Northern Lites Chords & Tabs

Super Furry Animals Chords & Tabs

Version: 1 Type: Bass Tab 0 ratings
1 star 2 stars 3 stars 4 stars 5 stars
comments

Northern Lites Bass Tab

   
Northern Lites
SUPER FURRY ANIMALS
The Matter Of Time
http://arrive.at/sfabass

Tabbed by: thecosmictrigger

verse: 
g: 
d:---------------------0--2-0-2-2-2-2-0-2-0-2-: 
a:2--0-2-2-2-2-0-2-0-2-----------------------0:  
e: 
 

[ Tab from: http://www.guitartabs.cc/tabs/s/super_furry_animals/northern_lites_btab.html ]
chorus: 
g: 
d:-2-2-2-2-4-4-4-4---------------: 
a:----------------2-2-2-2-4-4-4-4: 
e: 
 
g: 
d:2-2-2-2-4-4-4-4---------------2-2-: 
a:----------------2-2-2-2-4-2-4--4--: 
e: 
 
g: 
d:-4-2-4-4-4-4-2-4-2-4-2---------------2---: 
a:----------------------2-2-2-2-2-2-2-4-4-2: 
e: 
 
g: 
d: 
a:----------------2--2-2-2-:
e:2-2-2-2-2-2-2-4--4-------:

Comments