Super Furry Animals - Night Vision Chords & Tabs

 

Night Vision Chords & Tabs

Super Furry Animals Chords & Tabs

Version: 2 Type: Bass Tab 0 ratings
1 star 2 stars 3 stars 4 stars 5 stars
comments

Night Vision Bass Tab

   
Nightvision
SUPER FURRY ANIMALS
The Matter Of Time
http://arrive.at/sfabass

Tabbed by: thecosmictrigger

verse riff: 
g:
d: 
a:5--5-5-4-4--2-4-2---------:
e:------------------4--4-4-4:
 

[ Tab from: http://www.guitartabs.cc/tabs/s/super_furry_animals/night_vision_btab_ver_2.html ]
chorus: 
g: 
d: 
a:--------------4-2--------:
e:4-4-2-4-4-2-4-----4-4-4-4:
 
g: 
d: 
a:2-2---2-2---2-5-4-2-2-2-2:
e:----4-----4--------------: 
 
g: 
d: 
a:4--4-4-4--4-4-4-5-4-2:
e:---------------------:

g:
d:
a:
e:4-4-2-4-4-2-4-4-2-4: 
Comments