Super Furry Animals - Do Or Die Chords & Tabs

 

Do Or Die Chords & Tabs

Super Furry Animals Chords & Tabs

Version: 1 Type: Tab 0 ratings
1 star 2 stars 3 stars 4 stars 5 stars
comments

Do Or Die Tab

   
hello.

intro:
e)----------------------------------------------------------
B)----------------------------------------------------------
G)----9-7-6-----------9-7-9-7-6------------9-7--------------
D)----------9-7-6---------------9-7-6-----------------------
A)----------------9-7-----------------9-7-------------------
E)----------------------------------------------------------


the verse is:
guitar 1:
e)------------------------------------
B)------------------------------------
G)------------------------------------
D)--9-11-9-11-9-11-11-11--------------
A)--7-7--7-7--7-7--9--9-----X a lot --
E)------------------------------------

guitar 2:

this plays the rhythm chords of just E and F#
e: x79997
f#:x91111119

then for the chorus guitar 2 plays:
[ Tab from: http://www.guitartabs.cc/tabs/s/super_furry_animals/do_or_die_tab.html ]
e)---6-7-7-5--5-5-5-3--3-3-3-1--1-1-1-0-3-3-----------------------
B)---8-9-9-7--7-7-7-5--5-5-5-3--3-3-3-2-5-5-----------------------
G)---8-9-9-7--7-7-7-5--5-5-5-3--3-3-3-2-5-5-----------------------
D)---8-9-9-7--7-7-7-5--5-5-5-3--3-3-3-2-5-5-----------------------
A)---6-7-7-5--5-5-5-3--3-3-3-1--1-1-1-0-3-3-----------------------
E)----------------------------------------------------------------
repeat that a few time try and get it to fit the rhythm
 
along with that guitar 1 plays: 

e)---7-9-7-6-6-8-6-5-7-5-4-2-0---

the interlude to the song may be this but im not sure:
e)----------------------------------------------------------
B)----------------------------------------------------------
G)----9-7-6-----------9-7-9-7-6------------9-7--------------
D)----------9-7-6---------------9-7-6-----------------------
A)----------------9-7-----------------9-7-------------------
E)----------------------------------------------------------

thats bout all i can work out.
email me if u get the rest @ barry_fallon2000@hotmail.com
Comments