Sunk Loto - Vinegar Stroke Chords & Tabs

 

Vinegar Stroke Chords & Tabs

Sunk Loto Chords & Tabs

Version: 1 Type: Tab 0 ratings
1 star 2 stars 3 stars 4 stars 5 stars
comments

Vinegar Stroke Tab

Vinegar Stroke, by the one and only SUNK LOTO

Key:
h=hammer on
f=hammer off
\=slide down

main riff thing:

--------------------------
--------------------------
--5-------------6---------
--5--3--6-------6---------
--3--3--6-------4---------
-----1--4--0h1------------

I think the Pre-Chorus go's like this:
[ Tab from: http://www.guitartabs.cc/tabs/s/sunk_loto/vinegar_stroke_tab.html ]
----------------------------
----------------------------
----------------------------
--8\7f5-8\7f5-8\7f5-8\7-5---
--8\7f5-8\7f5-8\7f5-8\7-5---
--8\7f5-8\7f5-8\7f5-8\7-5---


Thats most of it, but trust me, It's probably wrong cos I'm a shit 
guitarest. If you know the real tab or any other tabs by Sunk, please 
email me:
the_dragon_soreress@yahoo.com
thanks!!!!!!
Comments