Sunk Loto - Vinegar Stroke Chords & Tabs

 

Vinegar Stroke Chords & Tabs

Sunk Loto Chords & Tabs

Version: 2 Type: Bass Tab 0 ratings
1 star 2 stars 3 stars 4 stars 5 stars
comments

Vinegar Stroke Bass Tab

Sunk Loto - Vinegar Stroke

Main Riff

G-------------------------------------------
D-------------------------------------------
A--3----------------------------------------
D----3--6--2-3-0----------------------------

Note: the notes in the above riff become repeated at parts,
particulary during the verses.
Listen to it, it's not hard to figure out where.

Chorus
[ Tab from: http://www.guitartabs.cc/tabs/s/sunk_loto/vinegar_stroke_btab_ver_2.html ]
G-------------------------------------------
D-------------------------------------------
A-------------------------------------------
D--5-4-0--5-4-0--5-4-0--5-4-0--5-4----------

Interlude

G-------------------------------------------
D-------------------------------------------
A-------------------------------------------
D--3-6-6*--3-6-6*--3-6-6*--3-6-6*--3-0-2-3--

*This note gets left out during some parts where this riff
is played.  

That's all the riffs in the song.

Tab by James Beecroft
beecroft@iinet.net.au
Comments