Sunk Loto - Submission Chords & Tabs

 

Submission Chords & Tabs

Sunk Loto Chords & Tabs

Version: 1 Type: Tab 0 ratings
1 star 2 stars 3 stars 4 stars 5 stars
comments

Submission Tab

Sunk Loto - Submission

Tune down half a step
not all the strumming is correct, but you can pick that up. 

intro + chorus
E--------------------------------------------
B--------------------------------------------
G----------7-7-7-9-9-9-9-7-7-7-7-6-6-6-6-------
D--4-4-4-4-7-7-7-9-9-9-9-7-7-7-7-6-6-6-6-7-7-7-
A--4-4-4-4-5-5-5-7-7-7-7-5-5-5-5-4-4-4-4-7-7-7-
E--2-2-2-2-------------------------------5-5-5-

E---------------------------------------------------
B----------s----------------------------------------
G----------t-7-9-9-9-9-9-11-11-11-11-9-9-9-9-7-7-7--
D--4-4-4-4-o-7-9-9-9-9-9-11-11-11-11-9-9-9-9-7-7-7--
A--4-4-3-3-p-5-7-7-7-7-7-9--9--9--9--7-7-7-7-5-5-5--
E--2-2-2-2------------------------------------------
[ Tab from: http://www.guitartabs.cc/tabs/s/sunk_loto/submission_tab.html ]
pre-verse
E---------------------------------------------------
B---------------------------------------------------
G---------------------------------------------------
D---------------------------------------------------
A--2-4--2-2-4-4-2-----2-2-----0-2-2-0---------------
E-----------------4-4-----4-4-----------------------

verse
E------------------
B------------------
G--------7-7-7-7---
D--4-4-4-7-7-7-7---
A--4-4-4-5-5-5-5---
E--2-2-2-----------

play chorus
play pre-verse
play verse
play chorus

E--------------------------------------
B-10-10-9-9-7-7-9-9-9-9-9--------------
G--------------------------------------
D-------------------------4-4-4-*-*-*--
A-------------------------4-4-4-*-*-*--
E-------------------------2-2-2-*-*-*-- play*3

verse but with no guitar so DONT PLAy!
chorus

foe this part just keep playing this chord
E----------
B----------
G----------
D--4-4-4---
A--4-4-4---
E--2-2-2---

outro!
E--------------------
B--------------------
G--------------------
D--4-4-4-4-4-5-5-5-5-
A--4-4-4-4-4-5-5-5-5-
E--2-2-2-2-2-3-3-3-3-

Comments