Sunk Loto - Spherical Hostage Chords & Tabs

 

Spherical Hostage Chords & Tabs

Sunk Loto Chords & Tabs

Version: 2 Type: Bass Tab 0 ratings
1 star 2 stars 3 stars 4 stars 5 stars
comments

Spherical Hostage Bass Tab

Sunk Loto - Spherical Hostage

First Verse

G---------------------------------------------------------
D---------------------------------------------------------
G--------5-5-5-------5-5-5----5-5-------5-5-5-------5-5-5-
C--6-6-6-------6-6-6------6-6-----6-6-6-------6-6-6-------

G----------------------------------------------
D----------------------------------------------
G----------------------------------------------
C--6-5-0-6-------------------------------------*

* - Not sure about this part of the riff.

Following Riff
[ Tab from: http://www.guitartabs.cc/tabs/s/sunk_loto/spherical_hostage_btab_ver_2.html ]
G----------------------------------------------
D----------------------------------------------
G----0------4----------------------------------
C--2---1--1------------------------------------

Next Riff

G----------------------------------------------
D----------------------------------------------
G----------------------------------------------
C--3-3-3-6-6-6-4-4-4-8-8-8-8-8-8-8-------------

Second Verse

G----------------------------------------------
D----------------------------------------------
G--------6-6-6-0-0-0-4-4-4-4-------------------
C--6-6-6---------------------0h4---------------

That's all the riffs in the song.
It's easy to work out the order.

Tab by James Beecroft
beecroft@iinet.net.au
Comments