Sunk Loto - Make You Feel Chords & Tabs

 

Make You Feel Chords & Tabs

Sunk Loto Chords & Tabs

Version: 1 Type: Bass Tab 0 ratings
1 star 2 stars 3 stars 4 stars 5 stars
comments

Make You Feel Bass Tab

   
Sunk Loto - Make You Feel

This should be played on a fretless, but it doesn't really matter.
Tuning=E,A,D,G to C#,G#,C#,G.  It'll sound alright in dropped D tuning,
but it is recorded in C# on the CD.

h=hammer on, p=pull off

Opening Riff

G ------------------------------------------
C#------------------------------------------
G#--3-3-5---------3-3-5---------------------
C#------------------------------------------

Pre - Verse

G ------------------------------------------
C#--3------3---3h5p3------------------------
G#----5-3----5-------5-3--------------------
C#------------------------------------------

Verse

G ------------------------------------------
C#------------------------------------------
G#--------3--------3p0h3--------------------
C#--3--0-----3--0---------------------------

G ------------------------------------------
C#------------------------------------------
G#--------3---------------------------------
C#--3--0-----3--0---0-0-0-------------------

Chorus
[ Tab from: http://www.guitartabs.cc/tabs/s/sunk_loto/make_you_feel_btab.html ]
G ------------------------------------------
C#------------------------------------------
G#-------0h3-0------------------------------
C#--3-3---------0-0-------------------------

Every fourth time, play:

G ------------------------------------------
C#------------------------------------------
G#-------0h3-0------------------------------
C#--3-3--------0-0-----3-3------------------

After Second Chorus:

G ------------------------------------------
C#-------------------------------3----------
G#--5--0h3--5-0----3-3--5--0h3-5---0--------
C#------------------------------------------

G ------------------------------------------
C#-----------------------------------3------
G#--3-3--5----0-5-0----3-3--5--0h3-5---0----
C#------------------------------------------

After the guitar and drums go for a while, you come in:

G -------|----------------------------------
C#-------|----------------------------------
G#-------|----------------------------------
C#-0-0-0-|--0-6-6-0-6-0-6-0-----------------

To finish it off, play:

G ------------------------------------------
C#------------------------------------------
G#------------------------------------------
C#--0-6-6-0-6-0-6-0--0-1--------------------


Tab by James Beecroft
beecroft@iinet.net.au

Comments