Sunk Loto - Goodbye Tonight Chords & Tabs

 

Goodbye Tonight Chords & Tabs

Sunk Loto Chords & Tabs

Version: 1 Type: Bass Tab 0 ratings
1 star 2 stars 3 stars 4 stars 5 stars
comments

Goodbye Tonight Bass Tab

Sunk Loto - Goodbye Tonight

First riff

G----------------------------------------------
D----------------------------------------------
G----------------------------------------------
C--2----6-6-6-6--------------------------------

just before chorus:

G----------------------------------------------
D----------------------------------------------
G----------------------------------------------
C--2----6-6-6-6-7-7-7-7-7-7-7-7----------------

Chorus (Part 1)

G----------------------------------------------
D----------------------------------------------
G--2-2--2-2-2----------------------------------
C--------------2-2--2-2-2----------------------

Chorus (Part 2)
[ Tab from: http://www.guitartabs.cc/tabs/s/sunk_loto/goodbye_tonight_btab.html ]
G----------------------------------------------
D----------------------------------------------
G--5-5-5-5-5-5-5-5-9-9-9-9-9-9-9-9-------------
C----------------------------------------------

G----------------------------------------------
D----------------------------------------------
G--5-5-5-5-5-5-5-5-7---------------------------
C----------------------------------------------

Wierd inbetween bit

G-------2----------------0-2---2---------------
D--3---------3-----0-2-3-----------------------
G----------------------------------------------
C----------------------------------------------

Play part 1 of the chorus for a while, the the first half of the second
part of the chorus for a while, then the bass changes to this (listen to
figure out when):

G---------------------------2--2-2-2--2-2-2--2-2-2----
D--3--3-3-3--3-3-3--3-3-3-5------------------------5-3
G-----------------------------------------------------
C-----------------------------------------------------

Tab By James Beecroft
beecroft@iinet.net.au

Comments