Sunk Loto - Everything Everyway Chords & Tabs

 

Everything Everyway Chords & Tabs

Sunk Loto Chords & Tabs

Version: 2 Type: Tab 0 ratings
1 star 2 stars 3 stars 4 stars 5 stars
comments

Everything Everyway Tab

BAND: Sunk Loto
SONG: Everything Everyway
Tuning: Drop C (CGCFAD)
* = Palm Mute

INTRO RIFF
D|------0-0-0-0-0-0------0-0-0-0-0-0-----0-0-0-0-0-0------0-0-0-0-0-0--|
A|------5-5-6-6-5-5------5-5-6-6-5-5-----5-5-6-6-5-5------5-5-6-6-5-5--|
F|---------------------------------------------------------------------|
C|--3-3--------------3-3-------------0-0--------------0-0--------------|
G|--3-3--------------3-3-------------0-0--------------0-0--------------|
C|--3-3--------------3-3-------------0-0--------------0-0--------------|
    * *              * *             * *              * *

D|------0-0-0-0-0-0------0-0-0-0-0-0----------------------|
A|------5-5-6-6-5-5------5-5-6-6-5-5----------------------|
F|--------------------------------------9-10-9-12-9-10-9--|
C|--3-3--------------3-3-------------0--x--x-x--x-x--x-x--|
G|--3-3--------------3-3-------------0--7--8-7-10-7--8-7--|
C|--3-3--------------3-3-------------0--------------------|
    * *              * *         

VERSE
D|-----------------------------|
A|-----------------------------|
F|--5--------9-10-9-12-9-10-9--|
C|--3--------x--x-x--x-x--x-x--|
G|--3--------7--8-7-10-7--8-7--|
C|--3-----0--------------------|
[ Tab from: http://www.guitartabs.cc/tabs/s/sunk_loto/everything_everyway_tab_ver_2.html ]
PRE-CHORUS
D|-------------------------------------------------------------------|
A|-------------------------------------------------------------------|
F|-------------------------------------------------------------------|
C|------2-2-3-3-2-2-----2-2-3-3-2-2-----2-2-3-3-2-2-----2-2-3-3-2-2--|
G|-------------------------------------------------------------------|
C|--3-3-------------3-3-------------0-0-------------0-0--------------|

D|-------------------------------------------------------|
A|-------------------------------------------------------|
F|-------------------------------------9-10-9-12-9-10-9--|
C|------2-2-3-3-2-2-----2-2-3-3-2-2----x--x-x--x-x--x-x--|
G|-------------------------------------7--8-7-10-7--8-7--|
C|--3-3-------------3-3-------------0--------------------|

CHORUS
**Chords to strum - listen to CD for pattern (pretty basic)
D|----------------------------------|
A|----------------------------------|
F|----------------------------------|
C|--3---9---3---9---12---9---3---9--|
G|--3---7---3---7---10---7---3---7--|
C|--3---7---3---7---10---7---3---7--|

BRIDGE
D|--0---0---0---0---0---0--|
A|--0---0---0---0---0---0--|
F|--9---9---9---9---9---9--|
C|--7---7---7---7---7---7--|
G|--7---7---7---7---7---7--|
C|--7---7---7---7---7---7--|

INTERLUDE
**Right notes - not sure of the exact rythm, listen to the CD.
D|--12-13-0-0-0-12-0-0-12-13-0-0-0-12-0-0-12-13-0-0-0-12-0-0--|
A|------------------------------------------------------------|
F|------------------------------------------------------------|
C|------------------------------------------------------------|
G|------------------------------------------------------------|
C|------------------------------------------------------------|

OUTRO
D|------0-0-0-0-0-0------0-0-0-0-0-0------|
A|------5-5-6-6-5-5------5-5-6-6-5-5------|
F|----------------------------------------|
C|--3-3--------------3-3-------------0-0--|
G|--3-3--------------3-3-------------0-0--|
C|--3-3--------------3-3-------------0-0--|
    * *              * *             *
Comments