Sunk Loto - Empty Days Chords & Tabs

 

Empty Days Chords & Tabs

Sunk Loto Chords & Tabs

Version: 1 Type: Bass Tab 0 ratings
1 star 2 stars 3 stars 4 stars 5 stars
comments

Empty Days Bass Tab

Sunk Loto - Empty Days

Verse 1

G-------------------------------------------------------------------
D-------------------------------------------------------------------
G-------3s6-5-3-3---3-6---------------------------------------------
C-3-2-1-----------------1-3--2----2---------------------------------

Bridge

G-------------------------------------------------------------------
D-------------------------------------------------------------------
G-7-7-7-7-7-7-7-7-7-7-7-7-7-7-7-7-----------------------------------
C---------------------------------0----3----------------------------

Chorus

G------------------------------------------------------
D------------------------------------------------------
G--------7-5-7-5-7--------7-5-7-5-7--------------------
C-2-2-2-------------2-2-2------------------------------

G------------------------------------------------------
D------------------------------------------------------
G-8-8-8-8-8-8-8-8-8-8-8-8-8-8-8-8-8-8-8-8--------------
C------------------------------------------------------

This riff changes at the middle of the chorus:

G------------------------------------------------------
D------------------------------------------------------
G--------7-5-7-5-7--------7-5-7-5-7--------------------
C-2-2-2-------------2-2-2------------------------------

G------------------------------------------------------
D------------------------------------------------------
G-8-8-8-8-8-8-8-8-8-8----------------------------------
C---------------------2-2s7-7--------------------------

Then at the end, it changes again:

G------------------------------------------------------
D------------------------------------------------------
G--------7-5-7-5-7--------7-5-7-5-7--------------------
C-2-2-2-------------2-2-2-----------3-3s7-10-----------


Pre - 'Solo'
[ Tab from: http://www.guitartabs.cc/tabs/s/sunk_loto/empty_days_btab.html ]
G----------------------------------------------------------------
D----------------------------------------------------------------
G---5-7-5-7-5-7---5-7-5-7-5-7---3-5-3-5-3-5----------------------
C-2-------------2-------------0--------------3----3--------------

G----------------------------------------------------------------
D----------------------------------------------------------------
G---5-7-5-7-5-7---5-7-5-7-5-7------------------------------------
C-2-------------2-------------0------0-------3----3--------------


During Solo

G----------------------------------------------------------------
D----------------------------------------------------------------
G--3-3-3-3-3-3-3-3-3-3-3-3-2-2-2-2-2-2-2-2-2-2-2-2---------------
C----------------------------------------------------------------

G----------------------------------------------------------------
D----------------------------------------------------------------
G----------------------------------------------------------------
C--3-3-3-3-3-3-3-3-3-3-3-3-2-2-2-2-2-2-2-2-2-2-2-2---------------

G----------------------------------------------------------------
D----------------------------------------------------------------
G----------------------------------------------------------------
C--6-6-6-6-6-6-6-6-6-6-6-6-5-5-5-5-5-5-5-5-5-5-5-5---------------

G----------------------------------------------------------------
D----------------------------------------------------------------
G----------------------------------------------------------------
C--3-3-3-3-3-3-3-3-3-3-3-3-3-3-3-3-3-3-3-3-3-3-3-3---------------

Just keep playing this note towards the end:

G----------------------------------------------------------------
D----------------------------------------------------------------
G----------------------------------------------------------------
C--3-3-3-3-3-3-3-3-3-3-3-3-3-3-3-3-3-3-3-3-3-3-3-3---------------

That's pretty much everything in the song.  You shouldn't have too much
trouble working out the order of the riffs etc.

Tab by James Beecroft
beecroft@iinet.net.au

Comments