Sunk Loto - Cured Chords & Tabs

 

Cured Chords & Tabs

Sunk Loto Chords & Tabs

Version: 2 Type: Bass Tab 0 ratings
1 star 2 stars 3 stars 4 stars 5 stars
comments

Cured Bass Tab

Sunk Loto - Cured

Opening Riff/Progression

b=bend into note

G--------------------------------------------------------------------------
D--------------------------------------------------------------------------
G--7-7-7-7-7-7-7-7-7-7-7-7-7-7-7-7-4-4-4-4-4-4-4-4-4-4-4-4-4-4-4-4---------
C--------------------------------------------------------------------------

G--------------------------------------------------------------------------
D--------------------------------------------------------------------------
G--6-6-6-6-6-6-6-6-6-6-6-6-6-6-6-6-----------------------------------------
C----------------------------------5-5-5-5-5-5-5-5-4-----------------------

Verse

G--------------------------------------------------------------------------
D--------------------------------------------------------------------------
G--7b----------------------------------------------------------------------
C------------2-------------------------------------------------------------

This riff variates to this in a part of the 2nd verse:

G--------------------------------------------------------------------------
D--------------------------------------------------------------------------
G--7b---------------2-2----------------------------------------------------
C------------2-------------------------------------------------------------

Chorus
[ Tab from: http://www.guitartabs.cc/tabs/s/sunk_loto/cured_btab_ver_2.html ]
G--------------------------------------------------------------------------
D--------------------------------------------------------------------------
G--7-7-7-7-7-7-7-7-7-7-7-7-7-7-7-7-4-4-4-4-4-4-4-4-4-4-4-4-4-4-4-4---------
C--------------------------------------------------------------------------

G--------------------------------------------------------------------------
D--------------------------------------------------------------------------
G----------------------------------2-2-2-2-2-2-2-2-2-2-2-2-2-4-------------
C--6-6-6-6-6-6-6-6-6-6-6-6-6-6-6-6-----------------------------------------

Pre - interlude

G--------------------------------------------------------------------------
D--------------------------------------------------------------------------
G--7-----------------------------------------------------------------------
C---------5----------------------------------------------------------------

Interlude

G--------------------------------------------------------------------------
D--------------------------------------------------------------------------
G--------------------------------7-----------------------------------------
C--5-5-5s8-8-8-9-9-9-8-8-8-8-8h9-------------------------------------------

Play the chorus for a bit, then finish off with

G--------------------------------------------------------------------------
D--------------------------------------------------------------------------
G-4-4-4-4-4-4-4-4-4-4s7--7-0-0-0-0-0-0-0-0-0-0-0---------------------------
C--------------------------------------------------------------------------

Tab by James Beecroft
beecroft@iinet.net.au
Comments