Sunk Loto - Blunt Chords & Tabs

 

Blunt Chords & Tabs

Sunk Loto Chords & Tabs

Version: 2 Type: Bass Tab 0 ratings
1 star 2 stars 3 stars 4 stars 5 stars
comments

Blunt Bass Tab

Sunk Loto - Blunt

Dropped C# tuning

Opening part

G -------------------------------------------------
D -------------------------------------------------
A ------------------------4------------4-----------
C#--0----------------------------------------------

Note: let the open C# ring out very quietly, and play the 
high C#'s more loudly.

Main riff

G -------------------------------------------------
D -------------------------------------------------
A -------------------------------------------------
C#--2s3s2-0--6-0-6-5-6-----------------------------

Chorus
[ Tab from: http://www.guitartabs.cc/tabs/s/sunk_loto/blunt_btab_ver_2.html ]
G -------------------------------------------------
D -------------------------------------------------
A -------------------------------------------------
C#--0-0-0-0-1-1-1-1s3-3-3-3-3-1-1-1-1--------------

Hip-hop part riff

G -------------------------------------------------
D -----2--4--0--4--5-------------------------------
A --4----------------------------------------------
C#-------------------------------------------------

Other Chorus

G -------------------------------------------------
D -------------------------------------------------
A -------------------------------------------------
C#--5h6-5-3-3h5-3-2-2h3-2-0------------------------
Comments