Sun Eats Hours - Sincerely Chords & Tabs

 

Sincerely Chords & Tabs

Sun Eats Hours Chords & Tabs

Version: 2 Type: Tab 0 ratings
1 star 2 stars 3 stars 4 stars 5 stars
comments

Sincerely Tab

   
THE SUN.EATS.HOURS :::::SINCERELY:::::

 Chords:
    A    F    E    C    E5ii F5ii
e|----------------------------------------|
B|----------------------------------------|
G|-----------------5----9----10-----------|
D|--7----3----2----5----9----10-----------|
A|--7----3----2----3----7----8------------|
E|--5----1----0---------------------------|


intro
e|----------------------------------------------------------------------------------------------------|
B|----------------------------------------------------------------------------------------------------|
G|-------9-----9------------10-----10-------------------9---------9------------------10--------10-----|
D|--7-7----7-7---7-------------------------10-10-10-10-----10-10----10--------------------------------|
A|------------------8-8-8-8-----8-8----8-------------------------------10-10-10-10------10-10----1----|
E|----------------------------------------------------------------------------------------------------|

e|----------------------------------------------------------------------------------------------------|
B|----------------------------------------------------------------------------------------------------|
G|--------9-----9------------10-----10--------------9---12--10>9---------9--12---10>9-----------------|
D|7-7-7-7----7-7---7-------------------------10-10----------------10-10-------------------------------|
A|------------------8-8-8-8-----8-8----8--------------------------------------------------------------|
E|----------------------------------------------------------------------------------------------------|

e|----------------------------------------------------------------------------------------------------|
B|----------------------------------------------------------------------------------------------------|
G|-------9-----9------------10-----10-------------------9---------9------------------10--------12-10--|
D|--7-7----7-7---7-------------------------10-10-10-10-----10-10----10--------------------------------|
A|------------------8-8-8-8-----8-8----8-------------------------------10-10-10-10------10-1----------|
E|----------------------------------------------------------------------------------------------------|

e|----------------------------------------------------------------------------------------------------|
B|----------------------------------------------------------------------------------------------------|
G|--------9-----9------------10-----10--------------9---12--10>9---------9--12---10>9-----------------|
D|----7-7----7-7---7-------------------------10-10----------------10-10-------------------------------|
A|------------------8-8-8-8-----8-8----8--------------------------------------------------------------|
E|----------------------------------------------------------------------------------------------------|

e|----------------------------------------------------------------------------------------------------|
B|----------------------------------------------------------------------------------------------------|
G|--------9-----9------------10-----10--------------9---12--10>9---------9--12---10>9-----------------|
D|7-7-7-7----7-7---7-------------------------10-10----------------10-10-------------------------------|
A|------------------8-8-8-8-----8-8----8--------------------------------------------------------------|
E|----------------------------------------------------------------------------------------------------|
[ Tab from: http://www.guitartabs.cc/tabs/s/sun_eats_hours/sincerely_tab_ver_2.html ]
e|--------------------------------------------------------------------------------------------------- |
B|----------------------------------------------------------------------------------------------------|
G|-------9-----9------------10-----10-------------------9---------9------------------10--------12-10--|
D|--7-7----7-7---7-------------------------10-10-10-10-----10-10----10--------------------------------|
A|------------------8-8-8-8-----8-8----8-------------------------------10-10-10-10------10-10---------|
E|----------------------------------------------------------------------------------------------------|

e|----------------------------------------------------------------------------------------------------|
B|----------------------------------------------------------------------------------------------------|
G|--------9-----9------------10-----10--------------9---12--10>9---------9--12---10>9-----------------|
D|----7-7----7-7---7-------------------------10-10----------------10-10-------------------------------|
A|------------------8-8-8-8-----8-8----8--------------------------------------------------------------|
E|----------------------------------------------------------------------------------------------------|

      second intro's part
e|---------------------------------------------------------------------------|
B|---------------------------------------------------------------------------|
G|-9--9-9--11-12-----------11-12-----------11-12-14-12-11-12-11-9------------|  x2
D|-7--7-7--9--10-10--10-10-9--10-12--12-12-9--10-12-10-9--10-9--7------------|
A|---------------8---8--8--------10--10-10-----------------------------------|
E|---------------------------------------------------------------------------|

VERSE
 A                       F5ii               C
ok here I am growin up with you and I've done nothing
    E5ii          A           F5ii                 C          E5ii
to be lucky as I am ; there so many guys that are running only to be alive
   A                                                                  C
while I'm running in the fields when the grass grows and the sun is marvellous
E                 A            F                 C       E
but how many guys are running only to run like I am doing now?


CHORUS
 A                  F5ii                            C                  E5ii
SINCERELY (HOO HOO) I DON'T KNOW SINCERELY( HOOHOO) SINCERELY WE MUST FELL GOOD

VERSE
 A                           F5ii                       C
i know everyday you say something like you are unlucky (unlucky!)
 E5ii            A                F5ii                 C            E5ii
well I didn't really think it because, death never passed by our eyes;
 A                         F           C    E
look at my eyes and do believe what I am singing
                    A                          F                  C       E
I know I've got the right and I wish they'll be running to run like I am doing now.

CHORUS

BRIDGE
P.M.  A    F   C   E   X2

                                                                                                    \ X 2
never give up with your fuckin' life never ever trhow out what someone has done for you,            | la 
volta
                                                                                                    | solo batteria
why someone bled for us; look at world situation, we're only fuckin' less who thoughtto got freedom | poi 
chitarra
                                                                                                    |
and thought to have more than that!!!                                                               /


CHORUS  X2

second intro's part
Comments