Sun Eats Hours - September 2001 Chords & Tabs

 

September 2001 Chords & Tabs

Sun Eats Hours Chords & Tabs

Version: 1 Type: Tab 0 ratings
1 star 2 stars 3 stars 4 stars 5 stars
comments

September 2001 Tab

Title: September 2001
Band: Sun eats hours
Tabbed by diark

Pm: palm mute
* : strum

Intro + verse 1 (without distortion)

   0:00                0:20
   -----------------x6|----------------------x2-|
   ---2--2-----2--2---|----------------1-2-1----|
   --3--3-3---3--3--3-|---1----1----3-----------|
   ----4---4-1--4--3--|--3----3----3-3----------|
   -1-----------------|-4--4-3--3-1-------------|
   -------------------|-------------------------|
pm                                                

   0: 27
   ---------------------------------------------|
   ---------------------------------------------|
   -6*-------------6*---------------------------|
   -4--8*-6*-6*-8*-4--6*---6*--6-let it ring ---|
   ----6--4--6--8-----4----6---6----------------|
   ----------4--6----------4---4----------------|
pm .. .. .. .. .. .. .. .. ..

Chorus (dirty distorion)
[ Tab from: http://www.guitartabs.cc/tabs/s/sun_eats_hours/september_2001_tab.html ]
   0:45
   ----------------------------------------------------|
   ----------------------------------------------------|
   ------6*-------------------6*-----------------------|
   -8*---6----6*----4*---8*---6----6*---4-44-44-4-3-1--|
   -8----4----6-----4----8----4----6-------------------|
   -6---------4-----2----6---------4-------------------|
pm

   0:58
   -----------------------------------------|
   -----------------------------------------|
   ------6*-------------------6*---8*--6*---|
   -8*---6----6*----4*---8*---6----6---4----|
   -8----4----6-----4----8----4-------------|
   -6---------4-----2----6------------------|
pm

Verse 2 (without distortion)

   1:12                
   -----------------x6|
   ---2--2-----2--2---|
   --3--3-3---3--3--3-|
   ----4---4-1--4--3--|
   -1-----------------|
   -------------------|
pm                                                

Chorus (dirty distortion) 1:33

End 

   2:00                
   -------------x7|-------------|
   ---------------|-------------|
   -8-8-6-5-5-6---|-8-8-6-5-----|
   --------6------|--------6-8--|
   ---------------|-------------|
   ---------------|-------------|
pm
Comments