Summers End - Haunting Hallowed Graves Chords & Tabs

 

Haunting Hallowed Graves Chords & Tabs

Summers End Chords & Tabs

Version: 1 Type: Tab 0 ratings
1 star 2 stars 3 stars 4 stars 5 stars
comments

Haunting Hallowed Graves Tab

Summer's End is a Metal band out of Maryland that formed in 2002.  They released their
self-titled cd in 2005.  It is an awesome cd. If you don't have it, go buy it.

Song: Haunting Hallowed Graves (intro)
Band: Summer's End
Album: Summer's End
Tuning: DADGBE
Tabbed By: Tyler Snedigar

 _________________
|      |Key|      |
|PM  =  palm mute |
|~   =  vibrato   |
|/   =  slide up  |
|\   =  slide down|
|h   =  hammer on |
|p   =  pull off  |
|_________________|

[ Tab from: http://www.guitartabs.cc/tabs/s/summers_end/haunting_hallowed_graves_tab.html ]
Intro                                                                                     X3
|-------------------------------------------------------------------------------------------|
|-------------------------------------------------------------------------------------------|
|-------------------------------------------------------------------------------------------|
|-0-0-------------------8-8-------------------5-5-------------------7-7----------8-8--------|
|-0-0-5-7-8-10-8-7-88---8-8-7-8-10-8-7-8-77---5-5-5-8-10-8-7-8-77---7-7-7-8-77---8-8-7-8-77-|
|-0-0-------------------8-8-------------------5-5-------------------7-7----------8-8--------|
PM. .                   . .                   . .                   . .          . .


Not so sure on this part...
|-------------------------------|
|-------------------------------|
|-------------------8p7p5h7p5---|
|-000-000------5h7h8---------8*-|
|-000-000-5h7h8-----------------|
|-000-000-----------------------|
Comments