Sum 41 - What Were All About Chords & Tabs

 

What Were All About Chords & Tabs

Sum 41 Chords & Tabs

Version: 5 Type: Tab 0 ratings
1 star 2 stars 3 stars 4 stars 5 stars
comments

What Were All About Tab

   
------------------------------------------------------------
               What We’re All About – Sum 41                
------------------------------------------------------------

By: xtreme_ryguy

Intro: (Harmonized over another riff played higher)
e|-2p0-2-4-5p4-5p4-|
B|-----------------|
G|-----------------|x6
D|-----------------|
A|-----------------|
E|-----------------|
[ Tab from: http://www.guitartabs.cc/tabs/s/sum_41/what_were_all_about_tab_ver_5.html ]
e|-7-7-6-6-5-5-4-4-|
B|-6-6-5-5-4-4-3-3-|
G|-----------------|x1
D|-----------------|
A|-----------------|
E|-----------------|

Chorus:
e|-------------------|
B|-------------------|
G|-------------------|
D|-4-4---7-9-9-10-10-|
A|-4-4---7-9-9-10-10-|
E|-2-2---5-7-7--8--8-|

There, now you can look off one of the other versions for
the rest, I thought these were the only parts that needed
corrections. So don’t give this a bad rating just because
you’re too lazy to look at another version for the rest and
think I should type it out again. Questions or comments?
Email extremebiker1@hotmail.com
============================================================
Comments