Sum 41 - What Were All About Chords & Tabs

 

What Were All About Chords & Tabs

Sum 41 Chords & Tabs

Version: 2 Type: Tab 0 ratings
1 star 2 stars 3 stars 4 stars 5 stars
comments

What Were All About Tab

Author/Artist: Sum 41
Title: What We're All About
Album: Spiderman Soundtrack
Transcribed by: Rishesh  Singh
Email: Sheesh@attbi.com

Notes: - This Version is Right 'cept for the sketchy solo
       - Order Not Shown
       - Standard Tuning
       - Listen to song for timing

         

Intro Gtr. 1             Intro Gtr. 2               Intro End

--------------9--------|--------------------------|-13-13-12-12-11-11-10-10---
---------9-10---10-9---|---------12-13-12-13-12---|---------------------------
-11-9-11---------------|-14-13-14-----------------|---------------------------
-----------------------|--------------------------|---------------------------
-----------------------|--------------------------|---------------------------
-----------------------|--------------------------|---------------------------
                                                                              

Optional Verse Riff (bass plays it on actual)
------------------------------------------------------------------------------
------------------------------------------------------------------------------
------------------------------------------------------------------------------
------------------------------------------------------------------------------
------0--0-2------------------------------------------------------------------
-2--2-------------------------------------------------------------------------
                                                                              

Verse Riff Gtr 2.              Verse Riff Gtr. 1
-----------------------------|------------------------------------------------
-----------------------------|------------------------------------------------
-----------------------------|------------------------------------------------
-----------------------------|-4-4-----2-4------------------------------------
-2-0-2-3-2-0-2-3-2-0---------|-4-4-----0-2------------------------------------
-----------------------------|-2-2--------------------------------------------

                                                                              

Chorus                    Chorus (alt. Fingering)
------------------------|-----------------------------------------------------
------------------------|-----------------------------------------------------
------------------------|-----------------------------------------------------
------------------------|-4-4--2-2-4-4-5-5------------------------------------
-4-4---7-7--9-9--10-10--|-4-4--0-0-2-2-3-3------------------------------------
-2-2---5-5--7-7--8--8---|-2-2-------------------------------------------------
                                                                              

Solo Gtr. 2 (chords played under lead)
[ Tab from: http://www.guitartabs.cc/tabs/s/sum_41/what_were_all_about_tab_ver_2.html ]
------------------------------------------------------------------------------
------------------------------------------------------------------------------
------------------------------------------------------------------------------
-4-4----------2-2-------------------------------------------------------------
-2-2-4-4-2-2--0-0-------------------------------------------------------------
-----2-2-0-0------------------------------------------------------------------
                                                                              

Solo Gtr. 1 (the parts with stars, just mess with a whammy bar with HEAVY DIST.)

---------------------21b-21b-\------19b-19b-19b-20b-21b-----------------------
-/-11b-11b-/------------------------------------------------------------------
---------------**---------------**--------------------------------------------
------------------------------------------------------------------------------
------------------------------------------------------------------------------
------------------------------------------------------------------------------

                                                                              
-19-21-22p21p19---19p18p16-17p16p14--|--------------9--------------------9----
-------------------------------------|---------9-10---10-9----------9-10------
-------------------------------------|-11-9-11--------------11-9-11-----------
-------------------------------------|----------------------------------------
-------------------------------------|----------------------------------------
-------------------------------------|----------------------------------------
                                                                              

--------13-13-12-12-11-11-10-10-----------------------------------------------
-10-9-------------------------------------------------------------------------
------------------------------------------------------------------------------
------------------------------------------------------------------------------
------------------------------------------------------------------------------
------------------------------------------------------------------------------
                                                                              

Cool Guitar Parts Played During All Verses (listen to song carefully)
------------||------------||--------------------------------------------------
------------||------------||--------------------------------------------------
--11p9-9p8--||-11-9p8-----||-11--11-9--9-8------------------------------------
------------||--------9---||--------------------------------------------------
------------||------------||--------------------------------------------------
------------||------------||--------------------------------------------------
Comments