Sum 41 - What I Believe Chords & Tabs

 

What I Believe Chords & Tabs

Sum 41 Chords & Tabs

Version: 1 Type: Bass Tab 0 ratings
1 star 2 stars 3 stars 4 stars 5 stars
comments

What I Believe Bass Tab

Song: What I believe
Band: Sum 41
Album: Half Hour of Power

Intro
g---------------
d---------------
a--2222....----
e---------------

Riff1/verse1
g--------------------------------------------------
d-------------------------------------------------
a--222222-------------------------------------
e------------444444-222222-000000-----
(at end of verse don't play E-2 and 0) 

Then
g---------------------------
d--------------2---2------
a--22222222--22-22----
e---------------------------

Chorus (instead of E-0 you could do D-2)
g----------------------------------------------------
d-----------------------------------------------------
a-----------------------------------------------------
e--222222000000222222244444422222222222000000222222-
[ Tab from: http://www.guitartabs.cc/tabs/s/sum_41/what_i_believe_btab.html ]
g----------------------------------------------------------------------
d-----------------------------------------------------------------------
a-22222222--------------------222222-----------------2222---------
e--------------222222000000------------222200004444-------2220000---

Riff1

Riff2/Verse2
g--------------------------------------------
d------------------------------------------
a-2------------------------2-2-------------
e---4--2-0-----------000--------4-42-20--

Riff3
g---------------------------------------------------------
d-----------------------------------------------------------------
a---------------------22222222-------------------------------
e--2222222200000000------------222222220000000022220000--

g---------------------------------------------------
d---------------------------------------------------
a-22222222--------------------------------------
e--------------2222222200000000--2--0-----

Bridge
g-------------------------------------------------
d-------------------------------------------------
a-2---fade-----2---fade-----------------------
e-------------------------------0000000000---

Chorus
Riff1
====
Comments