Sum 41 - Were All To Blame Chords & Tabs

 

Were All To Blame Chords & Tabs

Sum 41 Chords & Tabs

Version: 6 Type: Tab 0 ratings
1 star 2 stars 3 stars 4 stars 5 stars
comments

Were All To Blame Tab

   
We're All To Blame
Sum 41
Chuck

Tabbed by Josh

Eb Ab Db Gb Bb Eb


I saw a little article in Guitar World about how Sum 41 wrote this song, and they showed
how to play most of it.  So pretty much the first half of the tab is Guitar World,
straight from a conversation with Sum 41 themselves.  The rest is what I think sounds
right.  Give me comments/suggestions if you got em.


INTRO  (distortion)

e|---------------------|
B|---------------------|
G|--9999-999-9-/-10-9--|
D|--xxxx-xxx-x----x-x--|       x3
A|--7777-777-7-/--8-7--|
E|---------------------|



e|---------------------------<5>-------------<5>-------------<5>---|
B|---------------------------<5>-------------<5>-------------<5>---|
G|---------------------------<5>-------------<5>-------------<5>---|
D|--5-4-5-7-4-5---222222222-------222222222-------222222222--------|
A|--3-2-3-5-2-3---222222222-------222222222-------222222222--------|
E|----------------000000000-------000000000-------000000000--------|
                  PM-------       PM-------       PM---------------|
                            "ALL!"          "TO!"          "BLAME!"

e|--------------------------------------|
B|--------------------------------------|
G|--------------------------------------|
D|-5-4-5-7-4-5-----------------2-2-2-2--|
A|-3-2-3-5-2-3----3-2-3-5-2-3--2-2-2-2--|
E|-----------------------------0-0-0-0--|
                PM. . . . . .  . . . .

VERSE  (distortion)

"How can we still succeed, taking what we don't
Guitar 1
e|---------------------------------|
B|---------------------------------|   Guitar 2 does the same thing only
G|----------------77777777/5555----|   he plays the full E and B bar
D|----------------xxxxxxxx-xxxx----|   chord instead of just the base
A|--77777777/2222\55555555/3333----|   note.
E|---------------------------------|

Need.."
e|----------------------------------|--------------------------------|
B|----------------------------------|--------------------------------|
G|----------------------------------|--------------------------------|
D|--2-----2-5---2---2-----2-4---2---|2-----2-3---2---2---3-------3---|
A|--2-----2-5---2---2-----2-4---2---|2-----2-3---2---2---3---0---3---|
E|--0-----0-3---0---0-----0-2---0---|0-----0-1---0---0---1---0---1---|
 PM .     .     .   .     .     .    .     .     .   .       .


"telling lies, alibis, selling all the hate that
e|------------------------------|
B|------------------------------|
G|----------------55555555\7777-|
D|----------------xxxxxxxx-xxxx-|
A|--77777777/2222\33333333\5555-|
E|------------------------------|

We breed.."
e|----------------------------------|--------------------------------|
B|----------------------------------|--------------------------------|
G|----------------------------------|--------------------------------|
D|--2-----2-5---2---2-----2-4---2---|2-----2-3---2---2---3-------3---|
A|--2-----2-5---2---2-----2-4---2---|2-----2-3---2---2---3---0---3---|
E|--0-----0-3---0---0-----0-2---0---|0-----0-1---0---0---1---0---1---|
 PM .     .     .   .     .     .    .     .     .   .       .


"super-size our
e|---------------------------------|
B|---------------------------------|
G|----------------77777777/5555----|
D|----------------xxxxxxxx-xxxx----|
A|--77777777/2222\55555555/3333----|
E|---------------------------------|

Tragedy.."
e|----------------------------------|--------------------------------|
B|----------------------------------|--------------------------------|
G|----------------------------------|--------------------------------|
D|--2-----2-5---2---2-----2-4---2---|2-----2-3---2---2---3-------3---|
A|--2-----2-5---2---2-----2-4---2---|2-----2-3---2---2---3---0---3---|
E|--0-----0-3---0---0-----0-2---0---|0-----0-1---0---0---1---0---1---|
 PM .     .     .   .     .     .    .     .     .   .       .


"Born in the land of
e|------------------------------|
B|------------------------------|
G|----------------55555555\7777-|
D|----------------xxxxxxxx-xxxx-|
A|--77777777/2222\33333333\5555-|
E|------------------------------|

The free.."
e|----------------------------------|--------------------------------|
B|----------------------------------|--------------------------------|
G|----------------------------------|--------------------------------|
D|--2-----2-5---2---2-----2-4---2---|2-----2-3---2---2---3-------3---|
A|--2-----2-5---2---2-----2-4---2---|2-----2-3---2---2---3---0---3---|
E|--0-----0-3---0---0-----0-2---0---|0-----0-1---0---0---1---0---1---|
 PM .     .     .   .     .     .    .     .     .   .       .

PRECHORUS
[ Tab from: http://www.guitartabs.cc/tabs/s/sum_41/were_all_to_blame_tab_ver_6.html ]
"and we're.."
e|----------------|
B|----------------|
G|----------------|
D|-5-4-5-7-4-5----|
A|-3-2-3-5-2-3----|
E|----------------|

CHORUS  (clean, reverb)

Guitar 1
"All     to   blame...  we've gone too
e|--------1~----0~-----------|
B|--1~----3~----3~-----------|
G|--2~----2~----0~----1~-----|
D|--2~----------0~----2~-----|
A|--------------2~----2~-----|
E|--------------3~-----------|

   "far  from   pride   to  shame"
e|--------------11111111----000000000------------------|
B|--1111111-----33333333----333333333------------------|
G|--2222222-----22222222----000000000----111111111-----|
D|--2222222-----------------000000000----222222222-----|    x3
A|--------------------------222222222----222222222-----|
E|--------------------------333333333------------------|


Guitar 2
e|--5--------1------3----0-----|            He's picking a different
B|---5-5----3-3----3-3----0-0--|            version of the same chords
G|----5----2------0--------0---|
D|-----------------------------|       x3
A|-----------------------------|
E|-----------------------------|

POST CHORUS  (back to distortion)

"With no sacrifice"
e|----------------|
B|----------------|
G|----------------|
D|-5-4-5-7-4-5----|
A|-3-2-3-5-2-3----|
E|----------------|


Repeat verse


Repeat prechorus/chorus

"we want it all............everyone wants it all......"
e|--------------11111111----------------------0000000000-|
B|--111111------11111111-----11111111111------3333333333-|
G|--222222------22222222-----00000000000------0000000000-|
D|--222222------33333333-----22222222222------0000000000-|
A|--------------33333333-----33333333333------2222222222-|  x2
E|--------------11111111----------------------3333333333-|

BRIDGE  (heavy, moshpit distortion)

  "Sacrifice!!..."
e|-------------------------------------------------------|
B|-------------------------------------------------------|
G|------------------------------------------------10-----|
D|-2------5---2------4----2-------5---2-------257--x-----|   x2
A|-2------5---2------4----2-------5---2-------257--8-----|
E|-00000003---00000002----000000003---0000000-025--------|


  "Tell me now, what've we done? We don't know"
e|------------------------------------------|
B|------------------------------------------|
G|------------------------------------------|
D|-22222222--22222222--22222222--22222222---|
A|-22222222--22222222--22222222--22222222---|
E|-00000000--00000000--00000000--00000000---|
PM  -------   -------   -------   ----------|


"Believe me now, we have no choice left with our backs against the wall"
e|--------------------------------------------------------|
B|--------------------------------------------------------|
G|----------5-----------4-----------5---------------------|
D|-22222222-x--22222222-x--22222222-5--5555555555555555---|
A|-22222222-3--22222222-2--22222222-3--5555555555555555---|
E|-00000000----00000000----00000000----3333333333333333---|
 PM--------    --------    --------    -------------------|

CHORUS


e|--------------11111111----000000000------------------|
B|--1111111-----33333333----333333333------------------|
G|--2222222-----22222222----000000000----111111111-----|
D|--2222222-----------------000000000----222222222-----|    x3
A|--------------------------222222222----222222222-----|
E|--------------------------333333333------------------|

e|--------------11111111----------------------0000000000-|
B|--111111------11111111-----11111111111------3333333333-|
G|--222222------22222222-----00000000000------0000000000-|
D|--222222------33333333-----22222222222------0000000000-|   x3
A|--------------33333333-----33333333333------2222222222-|
E|--------------11111111----------------------3333333333-|

OUTRO  (acoustic)

Guitar 1
"All     to   blame...  we've gone too
e|--------1~----0~-----------|
B|--1~----3~----3~-----------|
G|--2~----2~----0~----1~-----|
D|--2~----------0~----2~-----|
A|--------------2~----2~-----|
E|--------------3~-----------|

   "far  from   pride   to  shame"
e|--------------11111111----000000000------------------|
B|--1111111-----33333333----333333333------------------|
G|--2222222-----22222222----000000000----111111111-----|
D|--2222222-----------------000000000----222222222-----|    x3
A|--------------------------222222222----222222222-----|
E|--------------------------333333333------------------|


Guitar 2
e|--5--------1------3----0-----|
B|---5-5----3-3----3-3----0-0--|
G|----5----2------0--------0---|
D|-----------------------------|       x3
A|-----------------------------|
E|-----------------------------|


End on:
e|------|
B|--1~--|
G|--2~--|
D|--2~--|
A|------|
E|------|

Done.

~Josh
Comments