Sum 41 - Were All To Blame Chords & Tabs

 

Were All To Blame Chords & Tabs

Sum 41 Chords & Tabs

Version: 5 Type: Tab 0 ratings
1 star 2 stars 3 stars 4 stars 5 stars
comments

Were All To Blame Tab

   
============================================================================
                       Sum 41 - We're All To Blame
============================================================================

Artist: Sum 41
Song: We're all to blame
Album: Chuck

Tuning: Eb Ab Db Gb Bb Eb

----------------------------------------------------------------------------

Intro (Listen to the strumming)
e|------------------|
B|------------------|
G|-9-999-999-9-10-9-|
D|------------------|       x3
A|-7-777-777-7-8--7-|
E|------------------|


  "Take everything..."    "All!"          "To!"        "Blame!"
e|------------------------------------------------------------|
B|------------------------------------------------------------|
G|--------------------------(5)------------(5)------------(5)-|
D|-5-4-5-7-4-5--------------(5)----------- (5)------------(5)-|
A|-3-2-3-5-2-3---000000000--(5)-000000000--(5)-000000000--(5)-|
E|---------------000000000------000000000------000000000------|

e|----------------------------------|
B|----------------------------------|
G|----------------------------------|
D|-5-4-5-5-4-5--5-4-5-7-4-5---------|
A|-3-2-3-5-2-3--3-2-3-5-2-3-0-0-0-0-|
E|--------------------------0-0-0-0-|
              PM...................

Chorus-Distortion
  "How can we..."
e|--------------------------------|
B|--------------------------------|
G|-99999999/4444\77777777/5555----|
D|--------------------------------|
A|-77777777/2222\55555555/3333----|
E|--------------------------------|

  "don't need..."
e|------------------------|
B|------------------------|
G|------------------------|
D|------------------------|
A|-00-54-00-4-0-00-3-0-33-|
E|-00-32-00-2-0-00-1-0-11-|
                     PM..

  "Telling lies..."
e|-----------------------------|
B|-----------------------------|
G|-99999999/4444\55555555\7777-|
D|-----------------------------|
A|-77777777/2222\33333333\5555-|
E|-----------------------------|
  "we breed..."
e|------------------------|
B|------------------------|
G|------------------------|
D|------------------------|
A|-00-54-00-4-0-00-3-0-33-|
E|-00-32-00-2-0-00-1-0-11-|

  "Super-size..."
e|-----------------------------|
B|-----------------------------|
G|-99999999/4444\77777777/5555-|
D|-----------------------------|
A|-77777777/2222\55555555/3333-|
E|-----------------------------|

  "You cant define me..."
e|------------------------|
B|------------------------|
G|------------------------|
D|------------------------|
A|-00-54-00-4-0-00-3-0-33-|
E|-00-32-00-2-0-00-1-0-11-|

  "Bought in the land..."
e|-----------------------------|
B|-----------------------------|
G|-99999999/4444\55555555\7777-|
D|-----------------------------|
A|-77777777/2222\33333333\5555-|
E|-----------------------------|

  "Land! Free!"        "And we're..."
e|------------------------------------|
B|------------------------------------|
G|------------------------------------|
D|------------------------5-4-5-7-4-5-|
A|-00-54-00-4-0-00-3-0-33-3-2-3-5-2-3-|
E|-00-32-00-2-0-00-1-0-11-------------|
[ Tab from: http://www.guitartabs.cc/tabs/s/sum_41/were_all_to_blame_tab_ver_5.html ]
Verse-Clean 
 "...all to blame..."       [          Repeat x3             ]
e|-5----1----0----------------------------------0-0-0-0-|
B|-5----3----3----1-----1-1-1-1-1-1-1-1-1-1-1-1-3-3-3-3-|
G|-5----2----0----2-----2-2-2-2-2-2-2-2-0-0-0-0-0-0-0-0-|
D|-0----0----0----2-----2-2-2-2-3-3-3-3-2-2-2-2-0-0-0-0-|
A|-----------x----0-----0-0-0-0-0-0-0-0-3-3-3-3-x-x-x-x-|
E|-----------3----------------------------------3-3-3-3-|
                        ^
                        Hold this chord on the last time
 "...with no sacrifice..."
e|---------------------|
B|---------------------|
G|---------------------|
D|-5-4-5-7-4-5---------|
A|-3-2-3-5-2-3-0-0-0-0-|
E|-------------0-0-0-0-|

Chorus

Verse- Clean
"And we're all..."     [          Repeat x4            ]
e|-5----1----0---------------------------------0-0-0-0-|
B|-5----3----3----1----1-1-1-1-1-1-1-1-1-1-1-1-3-3-3-3-|
G|-5----2----0----2----2-2-2-2-2-2-2-2-0-0-0-0-0-0-0-0-|
D|-0----0----0----2----2-2-2-2-3-3-3-3-2-2-2-2-0-0-0-0-|
A|-----------x----0----0-0-0-0-0-0-0-0-3-3-3-3-x-x-x-x-|
E|-----------3---------------------------------3-3-3-3-|
                       ^
                       Hold this chord on the last time

Bridge-Heavy
  "Sacrifice!!..."
e|----------------------------------|
B|----------------------------------|
G|----------------------------------|
D|----------------------------------|   x2
A|-50000000-40000000-50000000-05474-|
E|-30000000-20000000-30000000-03252-|

  "Tell me now..."
e|----------------------------------------|
B|----------------------------------------|
G|----------------------------------------|
D|----------------------------------------|
A|-00000000--00000000--00000000--00000000-|
E|-00000000--00000000--00000000--00000000-|

  "Believe me now..."
e|------------------------------------------------------|
B|------------------------------------------------------|
G|------------------------------------------------------|
D|------------------------------------------------------|
A|-00000000----00000000----00000000----5555555555555555-|
E|-00000000-8--00000000-7--00000000-8--3333333333333333-|

  "And now..."
e|-------------------------0-0-0-0-|
B|-1-1-1-1-1-1-1-1-1-1-1-1-3-3-3-3-|
G|-2-2-2-2-2-2-2-2-0-0-0-0-0-0-0-0-|
D|-2-2-2-2-3-3-3-3-2-2-2-2-0-0-0-0-|  x5
A|-0-0-0-0-0-0-0-0-3-3-3-3-x-x-x-x-|
E|-------------------------3-3-3-3-|


Outro-Acoustic    

  "All.. to.."    [       Repeat x3         ]
e|-5----1----0----------------------------0-|
B|-5----3----3----1-1-1-1-1-1-1-1-1-1-1-1-3-|
G|-5----2----0----2-2-2-2-2-2-2-2-0-0-0-0-0-|
D|-0----0----0----2-2-2-2-3-3-3-3-2-2-2-2-0-|
A|-----------x----0-0-0-0-0-0-0-0-3-3-3-3-x-|
E|-----------3----------------------------3-|
                  [       Play softly       ]



End on
"All..."
e|---|
B|-1-|
G|-2-|
D|-2-|
A|-0-|
E|---|
   ^Let fade



Lyrics:
Take everything left from me
All! To! Blame!

How can we still succeed taking what we don't need?
Telling lies as alibis, selling all the hate that we breed
Super size our tradgedies (you can't define me or justify greed)
Bought in the land of the free (Land! Free!)

And we're all to blame
We've gone too far, from pride to shame
We're trying so hard, we're dying in vain
We're hopelessly blissful and blind, to all we are
we want it all
WITH NO SACRIFICE!

Realize we spend our lives living in a culture of fear
Stand to salute and say thanks to the man of the year
How did we all come to this? (you can't define me or justify greed)
A greed that we just can't resist (resist)

And we're all to blame
We've gone too far, from pride to shame
We're trying so hard. we're dying in vain
We're hopelessly blissful and blind, to all we are
We want it all
Everyone wants it all
With no sacrifice

Tell me now, what have we done, we dont know
I cant' allow, what has begun to tear me down
Believe me now, we have no choice left with our backs against the wall

And now we're all to blame
We've gone too far, from pride to shame
We're hopelessly blissful and blind
When all we need, is something true to believe
Don't we all
Everyone, everyone
We will fall

Cause we're all to blame
We've gone too far from pride to shame
We're trying so hard, we're dying in vain
We want it all, everyone
Don't we all...





That's it. Enjoy.
Comments