Sum 41 - Were All To Blame Chords & Tabs

 

Were All To Blame Chords & Tabs

Sum 41 Chords & Tabs

Version: 2 Type: Tab 0 ratings
1 star 2 stars 3 stars 4 stars 5 stars
comments

Were All To Blame Tab

 this sum 41's new song we;re all to blame from forth coming album chuck

 i got this off somebody else so give credit to patriko for doing this which i have only seen 1 of

i am guitar41


Artist: Sum 41
Song: We're All to Blame
Album: Chuck
Tabber: Patriko
Tuning: Up half a step, tune E down a full step (D#,A#,D#,G#,B#,E#)

====================== INTRO =========================

  ___________________________   ______________
 /       PLAY 3 TIMES        \ /   END WITH   \
|-----------------------------|----------------|
|-----------------------------|----------------|
|--7--7-7-7--7-7-7--7-7-8--7--|----------------|
|-----------------------------|--8-7-8-10-7-8--|
|--5--5-5-5--5-5-5--5-5-6--5--|--8-7-8-10-7-8--|
|-----------------------------|--8-7-8-10-7-8--|
  ____________________  
 /    PLAY 3 TIMES    \ 
|----------------------|-----------------------------|--------------|
|----------------------|-----------------------------|--------------|
|----------------------|-----------------------------|--------------|
|--0--0-0-0-0-0-0-0-10-|--8-7-8-10-7-8-8-7-8-10-7-8--|--0--0--0--0--|
|--0--0-0-0-0-0-0-0----|--8-7-8-10-7-8-8-7-8-10-7-8--|--0--0--0--0--|
|--0--0-0-0-0-0-0-0-8--|--8-7-9-10-7-8-8-7-8-10-7-8--|--0--0--0--0--|
      . . . . . .                      . . . .  . .


====================== VERSE =========================

  _____________________________________
 /     PLAY DOUBLE-TIME (ALL FOUR)     \
|---------------------------------------|--------------------------------------|
|---------------------------------------|--------------------------------------|
|--7-7-7-7-7-7-2--5-5-5-5-3-3-3-3-------|--------------------------------------|
|---------------------------------------|--0--0/3-0-0--0/2-0-0--0/1-0-0/1-0/1--|
|--5-5-5-5-5-5-0--3-3-3-3-1-1-1-1-------|--0--0/3-0-0--0/2-0-0--0/1-0-0/1-0/1--|
|---------------------------------------|--0--0/3-0-0--0/2-0-0--0/1-0-0/1-0/1--|
                  \/                       .  . . . .  . . . .  . . . .   .
|---------------------------------------|--------------------------------------|
|---------------------------------------|--------------------------------------|
|--7-7-7-7-7-7-2--3-3-3-3-5-5-5-5-------|--------------------------------------|
|---------------------------------------|--0--0/3-0-0--0/2-0-0--0/1-0-0/1-0/1--|
|--5-5-5-5-5-5-0--1-1-1-1-3-3-3-3-------|--0--0/3-0-0--0/2-0-0--0/1-0-0/1-0/1--|
|---------------------------------------|--0--0/3-0-0--0/2-0-0--0/1-0-0/1-0/1--|
                  \/                       .  . . . .  . . . .  . . . .   .
|---------------------------------------|--------------------------------------|
|---------------------------------------|--------------------------------------|
|--7-7-7-10-10-10-9-9-9-5-5-5-9-9-9-9---|--------------------------------------|
|---------------------------------------|--0--0/3-0-0--0/2-0-0--0/1-0-0/1-0/1--|
|--5-5-5-8--8--8--7-7-7-3-3-3-7-7-7-7---|--0--0/3-0-0--0/2-0-0--0/1-0-0/1-0/1--|
|---------------------------------------|--0--0/3-0-0--0/2-0-0--0/1-0-0/1-0/1--|
                  \/                       .  . . . .  . . . .  . . . .   .
|---------------------------------------|--------------------------------------|
|---------------------------------------|--------------------------------------|
|--7-7-7-10-10-10-5-5-12-12-12-10-10-10-|--------------------------------------|
|---------------------------------------|--0--0/3-0-0--0/3-0--8-7-8-10-7-8-5~--|
|--5-5-5-8--8--8--3-3-10-10-10-8--8--8--|--0--0/3-0-0--0/3-0--8-7-8-10-7-8-5~--|
|---------------------------------------|--0--0/3-0-0--0/3-0--8-7-8-10-7-8-5~--|
                                           .  . . . .  . . . 

====================== CHORUS ========================

   __________________________
 /       CLEAN GUITAR        \
|----------3~----8~-----5~----|
|----8~----5~----10~----7~----|
|----7~----5~----10~----7~----|
|----5~----5~----10~----7~----|
|----5~----3~----8~-----5~----|
|----5~-----------------------|
         _________________________________
_______ /          PLAY 3 TIMES           \
       |----------8---8---5---5---6---6----|
       |--8---8-----8---8---6---6---6---6--|
Guitar |----7---7--------------------------|
 One   |-----------------------------------|
       |-----------------------------------|
       |-----------------------------------|_______
-------|                                   |END ON \
       |-----------------------------------|--------|
       |-----------------------------------|--------|
Guitar |----------5-5-5-5---------7-7-7-7--|---7~---|
 Two   |--5-5-5-5-5-5-5-5-3-3-3-3-7-7-7-7--|---7~---|
       |--5-5-5-5-3-3-3-3-3-3-3-3-5-5-5-5--|---5~---|
_______|--5-5-5-5---------3-3-3-3----------|--------|


====================== VERSE =========================

[ Tab from: http://www.guitartabs.cc/tabs/s/sum_41/were_all_to_blame_tab_ver_2.html ]
|----------------|--------------|
|----------------|--------------|
|----------------|--------------|
|--8-7-8-10-7-8--|--0--0--0--0--|
|--8-7-8-10-7-8--|--0--0--0--0--|
|--8-7-9-10-7-8--|--0--0--0--0--|
  _____________________________________
 /     PLAY DOUBLE-TIME (ALL FOUR)     \
|---------------------------------------|--------------------------------------|
|---------------------------------------|--------------------------------------|
|--7-7-7-7-7-7-2--5-5-5-5-3-3-3-3-------|--------------------------------------|
|---------------------------------------|--0--0/3-0-0--0/2-0-0--0/1-0-0/1-0/1--|
|--5-5-5-5-5-5-0--3-3-3-3-1-1-1-1-------|--0--0/3-0-0--0/2-0-0--0/1-0-0/1-0/1--|
|---------------------------------------|--0--0/3-0-0--0/2-0-0--0/1-0-0/1-0/1--|
                  \/                       .  . . . .  . . . .  . . . .   .
|---------------------------------------|--------------------------------------|
|---------------------------------------|--------------------------------------|
|--7-7-7-7-7-7-2--3-3-3-3-5-5-5-5-------|--------------------------------------|
|---------------------------------------|--0--0/3-0-0--0/2-0-0--0/1-0-0/1-0/1--|
|--5-5-5-5-5-5-0--1-1-1-1-3-3-3-3-------|--0--0/3-0-0--0/2-0-0--0/1-0-0/1-0/1--|
|---------------------------------------|--0--0/3-0-0--0/2-0-0--0/1-0-0/1-0/1--|
                  \/                       .  . . . .  . . . .  . . . .   .
|---------------------------------------|--------------------------------------|
|---------------------------------------|--------------------------------------|
|--7-7-7-10-10-10-9-9-9-5-5-5-9-9-9-9---|--------------------------------------|
|---------------------------------------|--0--0/3-0-0--0/2-0-0--0/1-0-0/1-0/1--|
|--5-5-5-8--8--8--7-7-7-3-3-3-7-7-7-7---|--0--0/3-0-0--0/2-0-0--0/1-0-0/1-0/1--|
|---------------------------------------|--0--0/3-0-0--0/2-0-0--0/1-0-0/1-0/1--|
                  \/                       .  . . . .  . . . .  . . . .   .
|---------------------------------------|--------------------------------------|
|---------------------------------------|--------------------------------------|
|--7-7-7-10-10-10-5-5-12-12-12-10-10-10-|--------------------------------------|
|---------------------------------------|--0--0/3-0-0--0/3-0--8-7-8-10-7-8-5~--|
|--5-5-5-8--8--8--3-3-10-10-10-8--8--8--|--0--0/3-0-0--0/3-0--8-7-8-10-7-8-5~--|
|---------------------------------------|--0--0/3-0-0--0/3-0--8-7-8-10-7-8-5~--|
                                           .  . . . .  . . . 

====================== CHORUS ========================

  ___________________________
 /       CLEAN GUITAR        \
|----------3~----8~-----5~----|
|----8~----5~----10~----7~----|
|----7~----5~----10~----7~----|
|----5~----5~----10~----7~----|
|----5~----3~----8~-----5~----|
|----5~-----------------------|
         _________________________________
_______ /          PLAY 3 TIMES           \
       |----------8---8---5---5---6---6----|
       |--8---8-----8---8---6---6---6---6--|
Guitar |----7---7--------------------------|
 One   |-----------------------------------|
       |-----------------------------------|
       |-----------------------------------|
-------|                                   |
       |-----------------------------------|
       |-----------------------------------|
Guitar |----------5-5-5-5---------7-7-7-7--|
 Two   |--5-5-5-5-5-5-5-5-3-3-3-3-7-7-7-7--|
       |--5-5-5-5-3-3-3-3-3-3-3-3-5-5-5-5--|
_______|--5-5-5-5---------3-3-3-3----------|
  _________________________________   ________
 /           PLAY 2 TIMES          \ / END ON \
|-----------------------------------|----------|
|-----------------------------------|----------|
|----------5-5-5-5---------7-7-7-7--|----7~----|
|--5-5-5-5-5-5-5-5-3-3-3-3-7-7-7-7--|----7~----|
|--5-5-5-5-3-3-3-3-3-3-3-3-5-5-5-5--|----5~----|
|--5-5-5-5---------3-3-3-3----------|----------|


====================== BREAK =========================

  ______________________________________
 /             PLAY 2 TIMES             \
|----------------------------------------|
|----------------------------------------|
|----------------------------------------|
|--3/0------3/0------2/0------2-0-3-5-6--|
|--3/0------3/0------2/0------2-0-3-5-6--|
|--3/0-0000-3/0-0000-2/0-0000-2-0-3-5-6--|
       ....     ....     ....
  ______________
 / PLAY 3 TIMES \
|----------------|--------------------|
|----------------|--------------------|
|----------------|--------------------|
|---0-000000-0---|--0-000000----------|
|---0-000000-0---|--0-000000-0--------|
|---0-000000-0---|--0-000000---3-2-3--|
      ......
|-----------------|-----------------|-----------------|
|-----------------|-----------------|-----------------|
|-----------------|-----------------|-----------------|
|--0-000000-0-----|--0-000000-0-----|--0-000000-0-----|
|--0-000000-0-----|--0-000000-0-----|--0-000000-0-----|
|--0-000000-0--8--|--0-000000-0--7--|--0-000000-0--8--|
     ......            ......            ......
|-----------------------------------|
|-----------------------------------|
|-----------------------------------|
|--3-3-3-3-3-3-3-3-3-3-3-3-3-3-3-3--|
|--3-3-3-3-3-3-3-3-3-3-3-3-3-3-3-3--|
|--3-3-3-3-3-3-3-3-3-3-3-3-3-3-3-3--|
   . . . . . . . . . . . . . . . .

====================== OUTRO =========================

  _________________________________   ________
 /           PLAY 5 TIMES          \ / END ON \
|-----------------------------------|----------|
|-----------------------------------|----------|
|----------5-5-5-5---------7-7-7-7--|----7~----|
|--5-5-5-5-5-5-5-5-3-3-3-3-7-7-7-7--|----7~----|
|--5-5-5-5-3-3-3-3-3-3-3-3-5-5-5-5--|----5~----|
|--5-5-5-5---------3-3-3-3----------|----------|

  _______________________   ________
 /     PLAY 4 TIMES      \ / END ON \
|---------3----8-----5----|----------|
|----8----5----10----7----|----8~----|
|----7----5----10----7----|----7~----|
|----5----5----10----7----|----5~----|
|----5----3----8-----5----|----5~----|
|----5--------------------|----5~----|
Comments