Sum 41 - Were All To Blame Chords & Tabs

 

Were All To Blame Chords & Tabs

Sum 41 Chords & Tabs

Version: 1 Type: Bass Tab 0 ratings
1 star 2 stars 3 stars 4 stars 5 stars
comments

Were All To Blame Bass Tab

This is my very first tab. I think ive got it right, the timings not great but its easy 
to work out.

Intro
G|----------------------------------|
D|-------------1--------------------|
A|-2-1-2-4-1-2----------------------|
E|----------------------------------|

G|-------------------------------------|
D|-11111111-1--111111111-1--11111111-1-|
A|-------------------------------------|
E|-------------------------------------|

G|----------------------------------|
D|-------------------------1-1-1-1--|
A|-2-1-2-4-1-2-2-1-2-4-1-2----------|
E|----------------------------------|

Verse (Rest in first 2 bars each time) x 4
G|----------------------------------        ------|
D|-1-44-11-33-1-1-44-11-33-1--------        ------|
A|----------------------------------        ------| 4th time
E|----------------------------------        -4-~--|
[ Tab from: http://www.guitartabs.cc/tabs/s/sum_41/were_all_to_blame_btab.html ]
Rest
Chorus x 3
G|-----------------------------------|
D|-----------------------------------|
A|---------4---2----------6---4------|
E|-4-4-4-4---------2-2-2-2-----------|

G|----------------------------------|
D|-------------1--------------------|
A|-2-1-2-4-1-2----------------------|
E|----------------------------------|

Verse x 4
Rest
Chorus x 3

Chorus 2
G|----------------------------------|
D|----------------------------------|
A|----------------------------------|
E|-4-4-4-4-0-0-0-0-2-2-2-2-2-2-2-2--|

Bridge


G|----------------------------------|
D|-1-1-4-1-1-3-1-1-4-3-4-6-4--------|
A|----------------------------------|
E|----------------------------------|

G|---------------------------------------|
D|-111111-1------------------------------|
A|---------------------------------- x 7-|
E|---------------------------------------|


G|----------------------------------|
D|-4-4-4-4-4-4-4-4-4-4-4-4-4-4-4-4--|
A|----------------------------------|
E|----------------------------------|

Chorus x 2
Chorus 2 x 4
Comments