Sum 41 - Were All About Chords & Tabs

 

Were All About Chords & Tabs

Sum 41 Chords & Tabs

Version: 1 Type: Tab 0 ratings
1 star 2 stars 3 stars 4 stars 5 stars
comments

Were All About Tab

Artist: Sum 41
Song: Still Waiting
Album:  Does This Look Infected?
Transcribed by: -=[BoomeR]=- Sherwin Villareal
hey punkers just play this as you see...its cool im 99.5% sure of this...

 v - downstroke
 ^ - upstroke
 .
 . - rest (vertical dots)
 .
Standard tuning

Intro:
  0:00
e|---------------------------------------------------------------------|
B|---------------------------------------------------------------------|
G|---------------------------------------------------------------------|
D|--9-9-9-9-9-9-9-9-5-5-5-5-5-5-5-5-----------------4-4-4-4-4-4-4-4----|
A|--7-7-7-7-7-7-7-7-3-3-3-3-3-3-3-3-5-5-5-5-5-5-5-5-2-2-2-2-2-2-2-2----|
E|----------------------------------3-3-3-3-3-3-3-3--------------------|
   pm..............................................................
e|---------------------------------------------------------------------|
B|---------------------------------------------------------------------|
G|------------------------------------------------------------------7--|
D|--9-9-9-9-9-9-9-9-5-5-5-5-5-5-5-5-----------------7-7-7-7-7-7-7-7-7--|
A|--7-7-7-7-7-7-7-7-3-3-3-3-3-3-3-3-5-5-5-5-5-5-5-5-5-5-5-5-5-5-5-5-5--|
E|----------------------------------3-3-3-3-3-3-3-3--------------------|
   pm..............................................................

Repeat 2x:
  0:11
e|---------------------------------------------------------------------|
B|---------------------------------------------------------------------|
G|-------------------5--5--5--5--5--------------------5--5--5--5--5----|
D|---2--2--2--2--2---5--5--5--5--5---2--2--2--2--2----5--5--5--5--5----| Guitar 1
A|-72--2--2--2--2---3--3--3--3--3---2--2--2--2--2----3--3--3--3--3----|(intro slide only
E|-0--0--0--0--0-------------------0--0--0--0--0---------------------| the first time)
 
e|---------------------------------------------------------------------|
B|---------------------------------------------------------------------|
G|----12--11-/-12-.--12--11-/-12-.--12--11-/-12-/-14--12--11--7--| Guitar 2
D|-----------------.---------------.-----------------------------------|(dots mean rest)
A|----10--9--/-10-.--10--9--/-10-.--10--9--/-10-/-12--10---9--5--|
E|---------------------------------------------------------------------|
Verse:
  0:22, 0:58
e|----------------------------------------------------------------------|
B|----------------------------------------------------------------------|
G|----------------------------------------------------------------------|
D|--2-------------------------------2---------------5---5-.-5-----------|
A|--2---------------87-.-87-.-5/7-0---------------5---5-.-5-----------|
E|--0---000-000-000-65-.-65-.-3/5-0---000-000-000-3-0-3-.-3-----------|
        pm. ... ...                     ... ... ...   .
        v^v v^v v^v                     v^v v^v v^v
e|----------------------------------------------------------------------|
B|----------------------------------------------------------------------|
G|--------------------------------------------------4-4-4-4-4-/-7-7-7---|
D|--2-------------------------------5-5-5-5-5-5-5-5-4-4-4-4-4-/-7-7-7---|
A|--2---------------87-.-87-.-8/7-5-5-5-5-5-5-5-5-2-2-2-2-2-/-5-5-5---|
E|--0---000-000-000-65-.-65-.-6/5-3-3-3-3-3-3-3-3---------------------|
        pm.........                 .................................
        v^v v^v v^v
Chorus:
  0:42, 1:19
e|-------------------------------------------------------------------|
B|-------------------------------------------------------------------|
G|--9---------------5-------------------------------4----------------|
D|--9---------------5---------------5---------------4----------------| (just strum)
A|--7---------------3---------------5---------------2----------------|
E|----------------------------------3--------------------------------|
[ Tab from: http://www.guitartabs.cc/tabs/s/sum_41/were_all_about_tab.html ]
  0:53
e|----------------------------------------------------------------------|
B|----------------------------------------------------------------------|
G|-----------------5-5-5-.----------------------------5-5-5-5-5-5-5-----| Guitar 1
D|-2-2-2-.---------5-5-5-.---------2-2-2-.------------5-5-5-5-5-5-5-----|(dots mean rest)
A|-2-2-2-.---------3-3-3-.---------2-2-2-.------------3-3-3-3-3-3-3-----|
E|-0-0-0-.-------------------------0-0-0-.------------------------------|

e|----------------------------------------------------------------------|
B|----------------------------------------------------------------------|
G|----12--11-/-12-.--12--11-/-12-.--12--11-/-12-/-14--12--11--7---|
D|-----------------.---------------.------------------------------------| Guitar 2
A|----10--9--/-10-.--10--9--/-10-.--10--9--/-10-/-12--10---9--5---|
E|----------------------------------------------------------------------|
Bridge:
  1:29
  Repeat 2x
e|----------------------------------|
B|----------------------------------|
G|-----5----------7--4--7-----------|
D|-2---5-----5----7--4--7-----------| Guitar 1
A|-2---3-----5----5--2--5-----------|(just strum)
E|-0---------3----------------------|
 |                                  |
e|----------------------------------|
B|----------------------------------|
G|-----------12---11-9--11----------| Guitar 2
D|----------------------------------|
A|-----------10---9--7--9-----------|
E|----------------------------------|

  1:39
  Repeat 4x
e|---------------------------|
B|---------------------------|
G|--9----------5----7--------|
D|--9----------5----7--------| (just strum)
A|--7----------3----5--------|
E|--0----------0----0--------|

  1:49
e|------------------------------------------------------------------|
B|------------------------------------------------------------------|
G|--9-9-9-9-9-9-9-9-9-9-9-9-9-9-9-12-12-12-12-12-11-11-11-11-11-----| Guitar 1
D|------------------------------------------------------------------|
A|--7-7-7-7-7-7-7-7-7-7-7-7-7-7-7-10-10-10-10-10-9--9--9--9--9------|
E|------------------------------------------------------------------|

e|------------------------------------------------------------------|
B|------------------------------------------------------------------|
G|-----------------5-5-5-.-----------------------4-4-4-.------------| Guitar 2
D|--2-2-2-.--------5-5-5-.--------5-5-5-.--------4-4-4-.------------|
A|--2-2-2-.--------3-3-3-.--------5-5-5-.--------2-2-2-.------------|
E|--0-0-0-.-----------------------3-3-3-.---------------------------|

  1:54 Guitar 1
  Repeat 4x
e|-----------------|----------------|-----------------|--------------------- --|
B|-----------------|----------------|-----------------|--------------------- --|
G|-----------------|----------------|-----------------|--------------------- --|
D|----9------------|----9-----------|-----9-----------|--------------------- --|
A|-7-----10-9---9--|-7-----10-9---9-|-10-----10-9---9-|-10-9-9-10-12-10-9- 10--|
E|-----------10----|-----------10---|------------10---|--------------------- --|
(no matter how punk you are, don't try to downstroke this)
e|-----------------|----------------|-----------------|--------------------- --|
B|-----------------|----------------|-----------------|--------------------- --|
G|-----------------|-5--5--5--------|-----------------|-4--4--4---4--4--4--- --|
D|-2--2--2---------|-5--5--5--------|-5--5--5---------|-4--4--4---4--4--4--- --|
A|-2--2--2---------|-3--3--3--------|-5--5--5---------|-2--2--2---2--2--2--- --|
E|-0--0--0---------|----------------|-3--3--3---------|--------------------- --|
                                                                 pm     pm
Repeat chorus 2x, then end the song with:
  2:35
e|-------------------------------|
B|-------------------------------|
G|--9-9-9-9-9-9-9-9-9------------|
D|--9-9-9-9-9-9-9-9-9------------|
A|--7-7-7-7-7-7-7-7-7------------|
E|-------------------------------|
Comments