Sum 41 - Welcome To Hell Chords & Tabs

 

Welcome To Hell Chords & Tabs

Sum 41 Chords & Tabs

Version: 1 Type: Tab 0 ratings
1 star 2 stars 3 stars 4 stars 5 stars
comments

Welcome To Hell Tab

   
Song: Welcome to hell
Artist: SUM 41
Tabbed by: Axel  (any comments or anything... my email)
Email: axel_drunk@hotmail.com

| /  slide up
| \  slide down
| h  hammer-on
| p  pull-off
| ~  vibrato
| +  harmonic
| x  Mute note
 


intro 
e|---------------------------------|
B|---------------------------------|
G|--8-8-8-6-8-8-8-------6-6-6------|
D|--8-8-8-6-8-8-8-4-4-4-6-6-6------|
A|--6-6-6-4-6-6-6-4-4-4-4-4-4------|
E|----------------2-2-2------------|
[ Tab from: http://www.guitartabs.cc/tabs/s/sum_41/welcome_to_hell_tab.html ]
verse1  
e|------------------------------------------------------------------------|
B|------------------------------------------------------------------------|
G|8-8-8-6-8-8-8--8-8-8-6-8-8-8--8-8-8-6-8-8-8---------6-6-6-6-----------8-|
D|8-8-8-6-8-8-8--8-8-8-6-8-8-8--8-8-8-6-8-8-8-4-4-4-4-6-6-6-6-4----6----8-|
A|6-6-6-4-6-6-6--6-6-6-4-6-6-6--6-6-6-4-6-6-6-4-4-4-4-4-4-4-4-4----6----6-|
E|--------------------------------------------2-2-2-2---------2----4------|

verse2  
e|------------------------------------------------------------|
B|------------------------------------------------------------|
G|--4-4-4---------6-6-6--8-------------4-4-------6-6--8-------|
D|--4-4-4--4-4-4--6-6-6--8-x3-----2-2--4-4--4-4--6-6--8--x1---|
A|--2-2-2--4-4-4--4-4-4--6--------2-2--2-2--4-4--4-4--6-------|
E|---------2-2-2------------------0-0-------2-2---------------|


song order:

intro x2
verse 1 x2
intro x2
verse 1 x2
verse 2
bass thingy
verse1 x2
verse2
that mega-effects (wowow)
verse2

=============================================================================
Comments