Sum 41 - Theres No Solution Chords & Tabs

 

Theres No Solution Chords & Tabs

Sum 41 Chords & Tabs

Version: 2 Type: Tab 0 ratings
1 star 2 stars 3 stars 4 stars 5 stars
comments

Theres No Solution Tab

Theres no Solution - Sum 41
Standard tuning & 1/2 step down
Tabbed by YoYoJoe

Im working on a tab for the whole album, look for it in the near future!

Main Riff
Guitar 1
|-7-----7-----7---7-7-8-|
|----5-----5----5-------|
|-----------------------|
|-----------------------|
|-----------------------|
|-----------------------|
*let ring

Intro (& first part of verse)

Guitar 1 plays main Riff

Guitar 2
|-XX-0----XX-0----XX-3----XX-2----|
|-XX-0----XX-1----XX-3----XX-3----|
|-XX-1----XX-0----XX-0----XX-2----|
|-XX-2----XX-2----XX-0----XX-0----|
|-XX-2----XX-3----XX-2----XX------|
|-XX-0----XX------XX-3----XX------|

Bridge
Guitar 1
|-7-7-5--5-5--5-5-0-7-7-5--5-3--3-3-0-3-3-1--1-0--0-|
|---------------------------------------------------|
|---------------------------------------------------|
|---------------------------------------------------|
|---------------------------------------------------|
|---------------------------------------------------|

|-/7--7-7-5--5-5--5-5-7--7--7-7--7--7--7-7--7--7-7-|
|--------------------------------------------------|
|--------------------------------------------------|
|--------------------------------------------------|
|--------------------------------------------------|
|--------------------------------------------------|

Chorus
|---------------------------------------------------------------|
|---------------------------------------------------------------|
|---------------------------------2--2--2-2-2--2--5--5-5-7--7-7-|
|-2--2--2-2-2--2--5--5--5-5-5--5--2--2--2-2-2--2--5--5-5-7--7-7-|
|-2--2--2-2-2--2--5--5--5-5-5--5--0--0--0-0-0--0--3--3-3-5--5-5-|
|-0--0--0-0-0--0--3--3--3-3-3--3--------------------------------|
[ Tab from: http://www.guitartabs.cc/tabs/s/sum_41/theres_no_solution_tab_ver_2.html ]
3rd Verse
|--------------------------------------------------------------------|
|--------------------------------------------------------------------|
|-5--5--5-5-5--5--7--7--7-7-7--7----------------------2--2-X--3--3-X-|
|-5--5--5-5-5--5--7--7--7-7-7--7------5--5-X--6--6-X--2--2-X--3--3-X-|
|-3--3--3-3-3--3--5--5--5-5-5--5------5--5-X--6--6-X--0--0-X--1--1-X-|
|---------------------------------12\-3--3-X--4--4-X-----------------|

|----------------------------------------------------------------|
|----------------------------------------------------------------|
|-5--5--5-5-5--5--7--7--7-7-7--7--5--5--5-5-5--5--7--7--7-7-7--7-|
|-5--5--5-5-5--5--7--7--7-7-7--7--5--5--5-5-5--5--7--7--7-7-7--7-|
|-3--3--3-3-3--3--5--5--5-5-5--5--3--3--3-3-3--3--5--5--5-5-5--5-|
|----------------------------------------------------------------|

Outro Verse
Guitar 1 plays the Main Riff (X2 after guitar 2 finishes)

Guitar 2
|----------------------------------------------------------------|
|----------------------------------------------------------------|
|-----------------5--5--5-5-5--5------------------2--2--2-2-2--2-|
|-2--2--2-2-2--2--5--5--5-5-5--5--5--5--5-5-5--5--2--2--2-2-2--2-|
|-2--2--2-2-2--2--3--3--3-3-3--3--5--5--5-5-5--5--0--0--0-0-0--0-|
|-0--0--0-0-0--0------------------3--3--3-3-3--3-----------------|

|---------------------------------------------------------------|
|---------------------------------------------------------------|
|---------------------------------2--2--2-2-2--2--5--5-5-7--7-7-|
|-2--2--2-2-2--2--5--5--5-5-5--5--2--2--2-2-2--2--5--5-5-7--7-7-|
|-2--2--2-2-2--2--5--5--5-5-5--5--0--0--0-0-0--0--3--3-3-5--5-5-|
|-0--0--0-0-0--0--3--3--3-3-3--3--------------------------------|

End with
|-----|
|-----|
|-X-X-|
|-X-X-|
|-X-X-|
|-X-X-|
Comments