Sum 41 - Theres No Solution Chords & Tabs

 

Theres No Solution Chords & Tabs

Sum 41 Chords & Tabs

Version: 1 Type: Tab 0 ratings
1 star 2 stars 3 stars 4 stars 5 stars
comments

Theres No Solution Tab

   
This is from der new album "CHUCK"

Drop D

Guitar One
Intro 8x
E|-6---6---6----6-6--7--------------------------------------------------|
B|---4---4---4----------------------------------------------------------|
G|----------------------------------------------------------------------|
D|----------------------------------------------------------------------|
A|----------------------------------------------------------------------|
D|----------------------------------------------------------------------|

Verse
Play intro 8x

Prechorus 1x
E|---------------------------------6-6-6-6-6-6-6-6-6-6-6-6-6-6-6-6------|
B|-7-7-7-7-7-7-7-9-6-6-6-6-6-6-6-6--------------------------------------|
G|----------------------------------------------------------------------|
D|----------------------------------------------------------------------|
A|----------------------------------------------------------------------|
D|----------------------------------------------------------------------|

E|----------------------------------------------------------------------|
B|--7-7-7-7-7-7-7-9-6-6-6-6-6-6-6-6-------------------------------------|
G|----------------------------------8-8-8-8-8-8-8-8-8-8-8-8-8-----------|
D|----------------------------------------------------------------------|
A|----------------------------------------------------------------------|
D|----------------------------------------------------------------------|

Chorus 1x
E|----------------------------------------------------------------------|
B|----------------------------------------------------------------------|
G|--8-8-8-8-8-8-8-8-----------------6-6-6-6-6-6-6-6-4-4-4-4-4-4-4-4-----|
D|--8-8-8-8-8-8-8-8-4-4-4-4-4-4-4-4-6-6-6-6-6-6-6-6-4-4-4-4-4-4-4-4-----|
A|--6-6-6-6-6-6-6-6-4-4-4-4-4-4-4-4-4-4-4-4-4-4-4-4-2-2-2-2-2-2-2-2-----|
D|------------------4-4-4-4-4-4-4-4-------------------------------------|

E|---------------------------------------------------------------------------|
B|---------------------------------------------------------------------------|
G|--8-8-8-8-8-8-8-8-----------------6-6-6-6-6-6-6-6-10-10-10-10-10-10-10-10--|
D|--8-8-8-8-8-8-8-8-4-4-4-4-4-4-4-4-6-6-6-6-6-6-6-6-10-10-10-10-10-10-10-10--|
A|--6-6-6-6-6-6-6-6-4-4-4-4-4-4-4-4-4-4-4-4-4-4-4-4-8--8--8--8--8--8--8--8---|
D|------------------4-4-4-4-4-4-4-4------------------------------------------|

Intro

Verse

Prechorus

Chorus

Bridge 1x (listen for timing)
E|--------------------------------------------------------------------------|
B|--------------------------------------------------------------------------|
G|-11-11-11-11-11-11-11-11-10-10-10-10-10-10-10-10-10-----------------------|
D|-x--x--x--x--x--x--x--x--x--x--x--x--x--x--x--x--x------------------------|
A|-9--9--9--9--9--9--9--9--8--8--8--8--8--8--8--8--8------------------------|
D|--------------------------------------------------------------------------|

E|--------------------------------------------------------------------------|
B|--------------------------------------------------------------------------|
G|-11-11-11-11-10-10-10-10-11-11-11-11--13--11--10--------------------------|
D|-x--x--x--x--x--x--x--x--x--x--x--x---x---x---x---------------------------|
A|-9--9--9--9--8--8--8--8--9--9--9--9---11--9---8---------------------------|
D|--------------------------------------------------------------------------|

E|--------------------------------------------------------------------------|
B|--------------------------------------------------------------------------|
G|-11-11-11-11-11-11-11-11-13-13-13-13-13-13-13-13-13-----------------------|
D|-x--x--x--x--x--x--x--x--x--x--x--x--x--x--x--x--x------------------------|
A|-9--9--9--9--9--9--9--9--11-11-11-11-11-11-11-11-11-----------------------|
D|--------------------------------------------------------------------------|
[ Tab from: http://www.guitartabs.cc/tabs/s/sum_41/theres_no_solution_tab.html ]
E|--------------------------------------------------------------------------|
B|--------------------------------------------------------------------------|
G|-10-10-10-10-10-10-10-10-11-10-10-10-10-10-10-10-10-----------------------|
D|-x--x--x--x--x--x--x--x--x--x--x--x--x--x--x--x--x------------------------|
A|-8--8--8--8--8--8--8--8--9--8--8--8--8--8--8--8--8------------------------|
D|--------------------------------------------------------------------------|

Chorus 1x

Outro (keep playing this till the end)
E|-6---6---6----6-6--7--------------------------------------------------|
B|---4---4---4----------------------------------------------------------|
G|----------------------------------------------------------------------|
D|----------------------------------------------------------------------|
A|----------------------------------------------------------------------|
D|----------------------------------------------------------------------|

Guitar Two
First 2 intros dont play then:
E|-------------------------------------------------------------------------|
B|-------------------------------------------------------------------------|
G|-4-------------------------6---------------------------------------------|
D|-4-------------------------6---------------------------------------------|
A|-2-------------------------4---------------------------------------------|
D|-------------------------------------------------------------------------|
then

Intro 4x
E|-------------------------------------------------------------------------|
B|-------------------------------------------------------------------------|
G|-8---------4----------------6--------------------------------------------|
D|-6---------4-------4--------6--------------------------------------------|
A|-6---------2-------4--------4--------------------------------------------|
D|-------------------4-----------------------------------------------------|

Verse
same as intro

Prechorus
No guitar two

Chorus
E|----------------------------------------------------------------------|
B|----------------------------------------------------------------------|
G|--8-8-8-8-8-8-8-8-----------------6-6-6-6-6-6-6-6-4-4-4-4-4-4-4-4-----|
D|--8-8-8-8-8-8-8-8-4-4-4-4-4-4-4-4-6-6-6-6-6-6-6-6-4-4-4-4-4-4-4-4-----|
A|--6-6-6-6-6-6-6-6-4-4-4-4-4-4-4-4-4-4-4-4-4-4-4-4-2-2-2-2-2-2-2-2-----|
D|------------------4-4-4-4-4-4-4-4-------------------------------------|

Intro

Verse

Prechorus

Chorus

Bridge
No guitar 2

Chorus 1x
E|--------------------------------------------------------------------------|
B|--------------------------------------------------------------------------|
G|--8-8-8-8-8-8-8-8-----------------6-6-6-6-6-6-6-6-4-4-4-4-4-4-4-4---------|
D|--8-8-8-8-8-8-8-8-4-4-4-4-4-4-4-4-6-6-6-6-6-6-6-6-4-4-4-4-4-4-4-4---------|
A|--6-6-6-6-6-6-6-6-4-4-4-4-4-4-4-4-4-4-4-4-4-4-4-4-2-2-2-2-2-2-2-2---------|
D|------------------4-4-4-4-4-4-4-4-----------------------------------------|

E|--------------------------------------------------------------------------|
B|--------------------------------------------------------------------------|
G|--8-8-8-8-8-8-8-8-----------------6-6-6-6-6-6-6-6-10-10-10-10-10-10-10-10-|
D|--8-8-8-8-8-8-8-8-4-4-4-4-4-4-4-4-6-6-6-6-6-6-6-6-10-10-10-10-10-10-10-10-|
A|--6-6-6-6-6-6-6-6-4-4-4-4-4-4-4-4-4-4-4-4-4-4-4-4-8--8--8--8--8--8--8--8--|
D|------------------4-4-4-4-4-4-4-4-----------------------------------------|

Outro (keep playing till end)
E|-------------------------------------------------------------------------|
B|-------------------------------------------------------------------------|
G|-8---------4----------------6--------------------------------------------|
D|-6---------4-------4--------6--------------------------------------------|
A|-6---------2-------4--------4--------------------------------------------|
D|-------------------4-----------------------------------------------------|

This is my first tab.
Comments