Sum 41 - Theres No Solution Chords & Tabs

 

Theres No Solution Chords & Tabs

Sum 41 Chords & Tabs

Version: 1 Type: Bass Tab 0 ratings
1 star 2 stars 3 stars 4 stars 5 stars
comments

Theres No Solution Bass Tab

I dont wanna know Cones name, I just want, bang bang bang....yeah
3 Paris

gb|--------4------4--------------------------------------------------------------|
db|-----------------4~-----------------------------------------------------------| (comes in at about 0:04)
ab|3~-5~-----3~------------------------------------------------------------------|
eb|------0~----3~----------------------------------------------------------------| intro

gb|----------------------------------------------------------------------------|
db|----------------------------------------------------------------------------|
ab|--3~------------------------------------------------------------------------|
eb|0~---3~-2~------------------------------------------------------------------| verse x2

gb|----------------------------------------------------------------------------|
db|----------------------------------------------------------------------------|
ab|33333333-55555555---------------77------------------------------------------|
eb|------------------00000000000000--------------------------------------------| pre-chorus 

gb|----------------------------------------------------------------------------|
db|----------------------------------------------------------------------------|
ab|33333333-55555555-777777777777777-------------------------------------------|
eb|----------------------------------------------------------------------------|

gb|----------------------------------------------------------------------------|
db|----------------------------------------------------------------------------|
ab|------------------55555555-33333333-----------------------------------------|
eb|00000000-33333333-----------------------------------------------------------| chorus

gb|----------------------------------------------------------------------------|
db|----------------------------------------------------------------------------|
ab|------------------55555555-22225555-----------------------------------------|
eb|00000000-33333333-----------------------------------------------------------|
[ Tab from: http://www.guitartabs.cc/tabs/s/sum_41/theres_no_solution_btab.html ]
gb|----------------------------------------------------------------------------|
db|----------4~----------------------------------------------------------------|
ab|---3~-----------------------------------------------------------------------|
eb|0~----/15~------------------------------------------------------------------| pre verse

gb|----------------------------------------------------------------------------|
db|---------4~--2--------4~----------------------------------------------------|
ab|---3~-----------3~----------------------------------------------------------|
eb|0~----3~------0~---3~-------------------------------------------------------| verse

pre-chorus
chorus

gb|----------------------------------------------------------------------------|
db|----------------------------------------------------------------------------|
ab|33333333-5555555------------------------------------------------------------|
eb|-----------------12\\-0-2-3-5-5----------------------------------------------| interlude

gb|----------------------------------------------------------------------------|
db|----------------------------------------------------------------------------|
ab|33333333-55555555-22222222-55555555-----------------------------------------|
eb|----------------------------------------------------------------------------|

chorus

gb|----------------------------------------------------------------------------|
db|---------------------------44444444-----------------------------------------|
ab|---------33333333-----------------------------------------------------------|
eb|00000000----------33333333--------------------------------------------------| outro

gb|----------------------------------------------------------------------------|
db|----------------------------------------------------------------------------|
ab|---------33333333-55555555-22225555-----------------------------------------|
eb|00000000---------------------------0~---------------------------------------|

gb|----------------------------------------------------------------------------|
db|----------------------------------------------------------------------------|
ab|----------------------------------------------------------------------------|
eb|00--------------------------------------------------------------------------|
Comments