Sum 41 - The Bitter End Chords & Tabs

 

The Bitter End Chords & Tabs

Sum 41 Chords & Tabs

Version: 1 Type: Tab 3 ratings
1 star 2 stars 3 stars 4 stars 5 stars
comments

The Bitter End Tab

 
Another Sum 41 Chuck Tab By Delta (or coconut) e-mail me at coconut_ddd@hotmail.com

Guitar 1 
                                                                          
D#||--------------------|----------------------------|-------------------|
A#||--------------------|----------------------------|-------------------|
F#||*-------------------|--9-9-9-9-9----7-7-7-7-7----|--6----------------|
C#||*--4----------------|--9-9-9-9-9----7-7-7-7-7----|--6----------------|
G#||---4----------------|--7-7-7-7-7----5-5-5-5-5----|--4----------------|
D#||---2----------------|----------------------------|-------------------|


                                                                               
-----------------------||--------------------------|--------------------------|
-----------------------||--------------------------|--------------------------|
----------------------*||--------------------------|--------------------------|
--7--7------6--6------*||--------------------------|--------------------------|
--7--7------6--6-------||--------5/-4--------5/-4--|--------5-----------4-----|
--5--5------4--4-------||--0--2--3/-2--0--2--3/-2--|--0--2-----2--0--2-----2--|


                                                      
--------------------------|--------------------------|
--------------------------|--------------------------|
--------------------------|--------------------------|
--------------------------|--------------------------|
--------5/-4--------5/-4--|--------5-----------4-----|
--0--2--3/-2--0--2--3/-2--|--0--2-----2--0--2-----2--|


                                                        3x
|---------------------------|---------------------------||
|---------------------------|---------------------------||
|*--------------------------|--------------------------*||
|*--------------------------|--------------------------*||
|---------5/-4--------5/-4--|--------5-----------4------||
|---0--2--3/-2--0--2--3/-2--|--0--2-----2--0--2-----2---||


                                                                      
----------------------------------|----------------------------------|
----------------------------------|----------------------------------|
--12/-11--11--11--11--11--11--11--|--12/-11--11--11--11--11--11--11--|
--x---x---x---x---x---x---x---x---|--x---x---x---x---x---x---x---x---|
--10/-9---9---9---9---9---9---9---|--10/-9---9---9---9---9---9---9---|
----------------------------------|----------------------------------|


                                                   
----------------------------------|---------------|
----------------------------------|---------------|
--12/-11--11--11--11--11--11--11--|---------------|
--x---x---x---x---x---x---x---x---|---------------|
--10/-9---9---9---9---9---9---9---|---------------|
----------------------------------|--7--8--9--10--|


                                                                      
----------------------------------|----------------------------------|
----------------------------------|----------------------------------|
--12/-11--11--11--11--11--11--11--|--12/-11--11--11--11--11--11--11--|
--x---x---x---x---x---x---x---x---|--x---x---x---x---x---x---x---x---|
--10/-9---9---9---9---9---9---9---|--10/-9---9---9---9---9---9---9---|
----------------------------------|----------------------------------|


                                                                           
----------------------------------|------------|--------------------------|
----------------------------------|------------|--------------------------|
--12/-11--11--11--11--11--11--11--|------------|--------------------------|
--x---x---x---x---x---x---x---x---|--10~-------|--------------------------|
--10/-9---9---9---9---9---9---9---|--10~-------|--------4-----------4-----|
----------------------------------|--10~-------|--2--2--2--2--2--2--2--2--|


                                                                                
-------------------------|--------------------------|--------------------------|
-------------------------|--------------------------|--------------------------|
-------------------------|--------------------------|--------------------------|
-----------5--------4----|-----------------5/-4--5--|--------------------------|
--7--------3--3--3--2----|--------4--------3/-2--3--|--------4--------7--7--7--|
--5--5--5----------------|--2--2--2--2--2-----------|--2--2--2--2--2--5--5--5--|


                                                                                
--------------------------|-------------------------|--------------------------|
--------------------------|-------------------------|--------------------------|
--------------------------|-------------------------|--------------------------|
--------------------------|-----------5--------4----|-----------------5/-4--5--|
--------4-----------4-----|--7--------3--3--3--2----|--------4--------3/-2--3--|
--2--2--2--2--2--2--2--2--|--5--5--5----------------|--2--2--2--2--2-----------|


                                                       
------------------------|-----------------------------|
------------------------|-----------------------------|
------------------------|-----------------------------|
------------------------|--11------------9------------|
--------4--------7------|--9-----9-9-9-9-7----7-7-7-7-|
--2--2--2--2--2--5------|-----------------------------|


                                                     
-------------------------|--------------------------|
-------------------------|--------------------------|
-------------------------|--------------11--10------|
--7----------------------|--------------------------|
--5----5-5-5-5-7----7----|--4--4--4--4--9---8-------|
---------------5----5----|--------------------------|


                                                                      
----------------------------------|----------------------------------|
----------------------------------|----------------------------------|
--12/-11--11--11--11--11--11--11--|--12/-11--11--11--11--11--11--11--|
--x---x---x---x---x---x---x---x---|--x---x---x---x---x---x---x---x---|
--10/-9---9---9---9---9---9---9---|--10/-9---9---9---9---9---9---9---|
----------------------------------|----------------------------------|


                                                   
----------------------------------|---------------|
----------------------------------|---------------|
--12/-11--11--11--11--11--11--11--|---------------|
--x---x---x---x---x---x---x---x---|---------------|
--10/-9---9---9---9---9---9---9---|---------------|
----------------------------------|--7--8--9--10--|


                                                        
-----------------------------|-------------------------|
-----------------------------|-------------------------|
-----------------------------|-------------------------|
--11------------9------------|--7----------------------|
--9-----9-9-9-9-7----7-7-7-7-|--5----5-5-5-5-7----7----|
-----------------------------|---------------5----5----|


                                                                      
--------------------------|----------------------|-------------------|
--------------------------|----------------------|-------------------|
--------------11--10------|----------------------|-------------------|
--------------------------|----------------------|-------------------|
--4--4--4--4--9---8-------|--4--4------4--4------|--4----------------|
--------------------------|--2--2------2--2------|--2----------------|


                                                              
-------------------|-------------------|---------------------|
-------------------|-------------------|---------------------|
-------------------|-------------------|---------------------|
-------------------|-------------------|---------------------|
--2----------------|--7----------------|--6--------5----5----|
--0----------------|--5----------------|--4--------3----3----|


                                                                                
--------------------------|-------------------------|--------------------------|
--------------------------|-------------------------|--------------------------|
--------------------------|-------------------------|--------------------------|
--------------------------|-----------5--------4----|-----------------5/-4--5--|
--------4-----------4-----|--7--------3--3--3--2----|--------4--------3/-2--3--|
--2--2--2--2--2--2--2--2--|--5--5--5----------------|--2--2--2--2--2-----------|


                                                                                
--------------------------|--------------------------|-------------------------|
--------------------------|--------------------------|-------------------------|
--------------------------|--------------------------|-------------------------|
--------------------------|--------------------------|-----------5--------4----|
--------4--------7--7--7--|--------4-----------4-----|--7--------3--3--3--2----|
--2--2--2--2--2--5--5--5--|--2--2--2--2--2--2--2--2--|--5--5--5----------------|


                                                    
--------------------------|------------------------|
--------------------------|------------------------|
--------------------------|------------------------|
-----------------5/-4--5--|------------------------|
--------4--------3/-2--3--|--------4--------7------|
--2--2--2--2--2-----------|--2--2--2--2--2--5------|


                                                        
-----------------------------|-------------------------|
-----------------------------|-------------------------|
-----------------------------|-------------------------|
--11------------9------------|--7----------------------|
--9-----9-9-9-9-7----7-7-7-7-|--5----5-5-5-5-7----7----|
-----------------------------|---------------5----5----|


                                                              
--------------------------|----------------------------------|
--------------------------|----------------------------------|
--------------11--10------|--12/-11--11--11--11--11--11--11--|
--------------------------|--x---x---x---x---x---x---x---x---|
--4--4--4--4--9---8-------|--10/-9---9---9---9---9---9---9---|
--------------------------|----------------------------------|


                                                                      
----------------------------------|----------------------------------|
----------------------------------|----------------------------------|
--12/-11--11--11--11--11--11--11--|--12/-11--11--11--11--11--11--11--|
--x---x---x---x---x---x---x---x---|--x---x---x---x---x---x---x---x---|
--10/-9---9---9---9---9---9---9---|--10/-9---9---9---9---9---9---9---|
----------------------------------|----------------------------------|


                                                                        
---------------|-----------------------------|-------------------------|
---------------|-----------------------------|-------------------------|
---------------|-----------------------------|-------------------------|
---------------|--11------------9------------|--7----------------------|
---------------|--9-----9-9-9-9-7----7-7-7-7-|--5----5-5-5-5-7----7----|
--7--8--9--10--|-----------------------------|---------------5----5----|


                                                                      
--------------------------|----------------------|-------------------|
--------------------------|----------------------|-------------------|
--------------11--10------|----------------------|-------------------|
--------------------------|----------------------|-------------------|
--4--4--4--4--9---8-------|--4--4------4--4------|--4----------------|
--------------------------|--2--2------2--2------|--2----------------|


                                                                                
--------------------|-------------------|------------------|-------------------|
--------------------|-------------------|------------------|-------------------|
--------------------|-------------------|------------------|-------------------|
--------------------|--6----------------|------------------|-------------------|
--------------4--4--|--4----------------|------------------|--4----------------|
--------------2--2--|-------------------|------------------|--2----------------|


                                                                                
--------------------|-------------------|------------------|-------------------|
--------------------|-------------------|------------------|-------------------|
--------------------|-------------------|------------------|-------------------|
--------------------|--6----------------|------------------|-------------------|
--------------4--4--|--4----------------|------------------|--4----------------|
--------------2--2--|-------------------|------------------|--2----------------|


                                                                   
--------------------|-------------------|-------------------------|
--------------------|-------------------|-------------------------|
--------------------|-------------------|-------------------------|
--------------------|--6----------------|-------------------------|
--------------4--4--|--4----------------|----------2----2----2----|
--------------2--2--|-------------------|----------0----0----0----|


                                                                                
-------------------|--------------------|-------------------|------------------|
-------------------|--------------------|-------------------|------------------|
-------------------|--------------------|-------------------|------------------|
-------------------|--------------------|--6----------------|------------------|
--4----------------|--------------4--4--|--4----------------|------------------|
--2----------------|--------------2--2--|-------------------|------------------|


                                                                                
--------------------------|-------------------------|--------------------------|
--------------------------|-------------------------|--------------------------|
--------------------------|-------------------------|--------------------------|
--------------------------|-----------5--------4----|-----------------5/-4--5--|
--------4-----------4-----|--7--------3--3--3--2----|--------4--------3/-2--3--|
--2--2--2--2--2--2--2--2--|--5--5--5----------------|--2--2--2--2--2-----------|


                                                                              
------------------------|--------------------------|-------------------------|
------------------------|--------------------------|-------------------------|
------------------------|--------------------------|-------------------------|
------------------------|--------------------------|-----------5--------4----|
--------4--------7------|--------4-----------4-----|--7--------3--3--3--2----|
--2--2--2--2--2--5------|--2--2--2--2--2--2--2--2--|--5--5--5----------------|


                                                                               
--------------------------|------------------------|--------------------------|
--------------------------|------------------------|--------------------------|
--------------------------|------------------------|--------------------------|
-----------------5/-4--5--|------------------------|--------------------------|
--------4--------3/-2--3--|--------4--------7------|--------4-----------4-----|
--2--2--2--2--2-----------|--2--2--2--2--2--5------|--2--2--2--2--2--2--2--2--|


                                                                              
-------------------------|--------------------------|------------------------|
-------------------------|--------------------------|------------------------|
-------------------------|--------------------------|------------------------|
-----------5--------4----|-----------------5/-4--5--|------------------------|
--7--------3--3--3--2----|--------4--------3/-2--3--|--------4--------7------|
--5--5--5----------------|--2--2--2--2--2-----------|--2--2--2--2--2--5------|


                                                                                
--------------------------|-------------------------|--------------------------|
--------------------------|-------------------------|--------------------------|
--------------------------|-------------------------|--------------------------|
--------------------------|-----------5--------4----|-----------------5/-4--5--|
--------4-----------4-----|--7--------3--3--3--2----|--------4--------3/-2--3--|
--2--2--2--2--2--2--2--2--|--5--5--5----------------|--2--2--2--2--2-----------|


                                                                          
------------------------|-------------------|----------------------------|
------------------------|-------------------|----------------------------|
------------------------|-------------------|--9-9-9-9-9----7-7-7-7-7----|
------------------------|--4----------------|--9-9-9-9-9----7-7-7-7-7----|
--------4--------7------|--4----------------|--7-7-7-7-7----5-5-5-5-5----|
--2--2--2--2--2--5------|--2----------------|----------------------------|


                                                                      
-------------------|----------------------|--------------------------|
-------------------|----------------------|--------------------------|
--6----------------|----------------------|--------------------------|
--6----------------|--7--7------6--6------|--------------------4-----|
--4----------------|--7--7------6--6------|--------4-----5-----2-----|
-------------------|--5--5------4--4------|--0--0--2--0--3--0-----0--|


                                                                              
-------------------------|--------------------------|------------------------|
-------------------------|--------------------------|------------------------|
-------------------------|--------------------------|------------------------|
-------------------------|--------------------4-----|------------------------|
--5-----4-----5-----4----|--------4-----5-----2-----|--5-----4-----5----5----|
--3--0--2--0--3--0--2----|--0--0--2--0--3--0-----0--|--3--0--2--0--3----3----|


                                                                                
--------------------------|-------------------------|--------------------------|
--------------------------|-------------------------|--------------------------|
--------------------------|-------------------------|--------------------------|
--------------------------|-----------5--------4----|-----------------5/-4--5--|
--------4-----------4-----|--7--------3--3--3--2----|--------4--------3/-2--3--|
--2--2--2--2--2--2--2--2--|--5--5--5----------------|--2--2--2--2--2-----------|


                                                                                
--------------------------|--------------------------|-------------------------|
--------------------------|--------------------------|-------------------------|
--------------------------|--------------------------|-------------------------|
--------------------------|--------------------------|-----------5--------4----|
--------4--------7--7--7--|--------4-----------4-----|--7--------3--3--3--2----|
--2--2--2--2--2--5--5--5--|--2--2--2--2--2--2--2--2--|--5--5--5----------------|


                                                    
--------------------------|------------------------|
--------------------------|------------------------|
--------------------------|------------------------|
-----------------5/-4--5--|------------------------|
--------4--------3/-2--3--|--------4--------7------|
--2--2--2--2--2-----------|--2--2--2--2--2--5------|


                                                        
-----------------------------|-------------------------|
-----------------------------|-------------------------|
-----------------------------|-------------------------|
--11------------9------------|--7----------------------|
--9-----9-9-9-9-7----7-7-7-7-|--5----5-5-5-5-7----7----|
-----------------------------|---------------5----5----|


                                                              
--------------------------|----------------------------------|
--------------------------|----------------------------------|
--------------11--10------|--12/-11--11--11--11--11--11--11--|
--------------------------|--x---x---x---x---x---x---x---x---|
--4--4--4--4--9---8-------|--10/-9---9---9---9---9---9---9---|
--------------------------|----------------------------------|


                                                                      
----------------------------------|----------------------------------|
----------------------------------|----------------------------------|
--12/-11--11--11--11--11--11--11--|--12/-11--11--11--11--11--11--11--|
--x---x---x---x---x---x---x---x---|--x---x---x---x---x---x---x---x---|
--10/-9---9---9---9---9---9---9---|--10/-9---9---9---9---9---9---9---|
----------------------------------|----------------------------------|


                                                                        
---------------|-----------------------------|-------------------------|
---------------|-----------------------------|-------------------------|
---------------|-----------------------------|-------------------------|
---------------|--11------------9------------|--7----------------------|
---------------|--9-----9-9-9-9-7----7-7-7-7-|--5----5-5-5-5-7----7----|
--7--8--9--10--|-----------------------------|---------------5----5----|


                                                        
--------------------------||---------------------------|
--------------------------||---------------------------|
--------------11--10------||*--------------------------|
--------------------------||*--------------------------|
--4--4--4--4--9---8-------||---------5/-4--------5/-4--|
--------------------------||---0--2--3/-2--0--2--3/-2--|


                           3x                                                
---------------------------||--------------------|--------------------------|
---------------------------||--------------------|--------------------------|
--------------------------*||--------------------|--------------------------|
--------------------------*||--------------------|--------------------4-----|
--------5-----------4------||--4--------4--------|--------4-----5-----2-----|
--0--2-----2--0--2-----2---||--2--------2--------|--0--0--2--0--3--0-----0--|


                                                                              
-------------------------|--------------------------|------------------------|
-------------------------|--------------------------|------------------------|
-------------------------|--------------------------|------------------------|
-------------------------|--------------------4-----|------------------------|
--5-----4-----5-----4----|--------4-----5-----2-----|--5-----4-----5----5----|
--3--0--2--0--3--0--2----|--0--0--2--0--3--0-----0--|--3--0--2--0--3----3----|


                                                                                
--------------------------|-------------------------|--------------------------|
--------------------------|-------------------------|--------------------------|
--------------------------|-------------------------|--------------------------|
--------------------4-----|-------------------------|--------------------4-----|
--------4-----5-----2-----|--5-----4-----5-----4----|--------4-----5-----2-----|
--0--0--2--0--3--0-----0--|--3--0--2--0--3--0--2----|--0--0--2--0--3--0-----0--|


                                                                     
-------------------------|--------------------|--------------------||
-------------------------|--------------------|--------------------||
-------------------------|--------------------|--------------------||
-------------------------|--------------------|--------------------||
--5-----4-----5----5/-4--|--4--------7--------|--6--------5--------||
--3--0--2--0--3----3/-2--|--2--------5--------|--4--------3--------||


Guitar 2
                                                                          
D#||--------------------|----------------------------|-------------------|
A#||--------------------|----------------------------|-------------------|
F#||*-------------------|--9-9-9-9-9----7-7-7-7-7----|--6----------------|
C#||*--4----------------|--9-9-9-9-9----7-7-7-7-7----|--6----------------|
G#||---4----------------|--7-7-7-7-7----5-5-5-5-5----|--4----------------|
D#||---2----------------|----------------------------|-------------------|


                                                     
-----------------------||------|------|------|------|
-----------------------||------|------|------|------|
----------------------*||------|------|------|------|
--7--7------6--6------*||------|------|------|------|
--7--7------6--6-------||------|------|------|------|
--5--5------4--4-------||------|------|------|------|


                                                        3x
|---------------------------|---------------------------||
|---------------------------|---------------------------||
|*--------------------------|--------------------------*||
|*--------------------------|--------------------------*||
|---------5/-4--------5/-4--|--------5-----------4------||
|---0--2--3/-2--0--2--3/-2--|--0--2-----2--0--2-----2---||

Listen to hear when what guitar plays or when they both play. The solo's are below i don't know exactily where they
are put in and listen to the song to lay them right.
                                                                      
----------------------------------|----------------------------------|
----------------------------------|----------------------------------|
--12/-11--11--11--11--11--11--11--|--12/-11--11--11--11--11--11--11--|
--x---x---x---x---x---x---x---x---|--x---x---x---x---x---x---x---x---|
--10/-9---9---9---9---9---9---9---|--10/-9---9---9---9---9---9---9---|
----------------------------------|----------------------------------|


                                                   
----------------------------------|---------------|
----------------------------------|---------------|
--12/-11--11--11--11--11--11--11--|---------------|
--x---x---x---x---x---x---x---x---|---------------|
--10/-9---9---9---9---9---9---9---|---------------|
----------------------------------|--7--8--9--10--|


                                                                      
----------------------------------|----------------------------------|
----------------------------------|----------------------------------|
--12/-11--11--11--11--11--11--11--|--12/-11--11--11--11--11--11--11--|
--x---x---x---x---x---x---x---x---|--x---x---x---x---x---x---x---x---|
--10/-9---9---9---9---9---9---9---|--10/-9---9---9---9---9---9---9---|
----------------------------------|----------------------------------|


                                                                              
----------------------------------|---------------|--------------------------|
----------------------------------|---------------|--------------------------|
--12/-11--11--11--11--11--11--11--|---------------|--------------------------|
--x---x---x---x---x---x---x---x---|---------------|--------------------------|
--10/-9---9---9---9---9---9---9---|---------------|--------4-----------4-----|
----------------------------------|--7/-8--9--10--|--2--2--2--2--2--2--2--2--|


                                                                                
-------------------------|--------------------------|--------------------------|
-------------------------|--------------------------|--------------------------|
-------------------------|--------------------------|--------------------------|
-----------5--------4----|-----------------5/-4--5--|--------------------------|
--7--------3--3--3--2----|--------4--------3/-2--3--|--------4--------7--7--7--|
--5--5--5----------------|--2--2--2--2--2-----------|--2--2--2--2--2--5--5--5--|


                                                                                
--------------------------|-------------------------|--------------------------|
--------------------------|-------------------------|--------------------------|
--------------------------|-------------------------|--------------------------|
--------------------------|-----------5--------4----|-----------------5/-4--5--|
--------4-----------4-----|--7--------3--3--3--2----|--------4--------3/-2--3--|
--2--2--2--2--2--2--2--2--|--5--5--5----------------|--2--2--2--2--2-----------|


                                                       
------------------------|-----------------------------|
------------------------|-----------------------------|
------------------------|-----------------------------|
------------------------|--11------------9------------|
--------4--------7------|--9-----9-9-9-9-7----7-7-7-7-|
--2--2--2--2--2--5------|-----------------------------|


                                                     
-------------------------|--------------------------|
-------------------------|--------------------------|
-------------------------|--------------11--10------|
--7----------------------|--------------------------|
--5----5-5-5-5-7----7----|--4--4--4--4--9---8-------|
---------------5----5----|--------------------------|


                                                                      
----------------------------------|----------------------------------|
----------------------------------|----------------------------------|
--12/-11--11--11--11--11--11--11--|--12/-11--11--11--11--11--11--11--|
--x---x---x---x---x---x---x---x---|--x---x---x---x---x---x---x---x---|
--10/-9---9---9---9---9---9---9---|--10/-9---9---9---9---9---9---9---|
----------------------------------|----------------------------------|


                                                                          
----------------------------------|---------------|----------------------|
----------------------------------|---------------|----------------------|
--12/-11--11--11--11--11--11--11--|---------------|--11--------13--------|
--x---x---x---x---x---x---x---x---|---------------|----------------------|
--10/-9---9---9---9---9---9---9---|---------------|--9---------11--------|
----------------------------------|--7--8--9--10--|----------------------|


                                                                         
----------------------|--------------------------|----------------------|
----------------------|--------------------------|----------------------|
--14--------6----6----|--------------11--10------|----------------------|
----------------------|--------------------------|----------------------|
--12--------4----4----|--4--4--4--4--9---8-------|--4--4------4--4------|
----------------------|--------------------------|--2--2------2--2------|


                                                            
-------------------|-------------------|-------------------|
-------------------|-------------------|-------------------|
-------------------|-------------------|-------------------|
-------------------|-------------------|-------------------|
--4----------------|--2----------------|--7----------------|
--2----------------|--0----------------|--5----------------|


                                                                           
---------------------|--------------------------|-------------------------|
---------------------|--------------------------|-------------------------|
---------------------|--------------------------|-------------------------|
---------------------|--------------------------|-----------5--------4----|
--6--------5----5----|--------4-----------4-----|--7--------3--3--3--2----|
--4--------3----3----|--2--2--2--2--2--2--2--2--|--5--5--5----------------|


                                                      
--------------------------|--------------------------|
--------------------------|--------------------------|
--------------------------|--------------------------|
-----------------5/-4--5--|--------------------------|
--------4--------3/-2--3--|--------4--------7--7--7--|
--2--2--2--2--2-----------|--2--2--2--2--2--5--5--5--|


                                                                                
--------------------------|-------------------------|--------------------------|
--------------------------|-------------------------|--------------------------|
--------------------------|-------------------------|--------------------------|
--------------------------|-----------5--------4----|-----------------5/-4--5--|
--------4-----------4-----|--7--------3--3--3--2----|--------4--------3/-2--3--|
--2--2--2--2--2--2--2--2--|--5--5--5----------------|--2--2--2--2--2-----------|


                                                       
------------------------|-----------------------------|
------------------------|-----------------------------|
------------------------|-----------------------------|
------------------------|--11------------9------------|
--------4--------7------|--9-----9-9-9-9-7----7-7-7-7-|
--2--2--2--2--2--5------|-----------------------------|


                                                     
-------------------------|--------------------------|
-------------------------|--------------------------|
-------------------------|--------------11--10------|
--7----------------------|--------------------------|
--5----5-5-5-5-7----7----|--4--4--4--4--9---8-------|
---------------5----5----|--------------------------|


                                                                      
----------------------------------|----------------------------------|
----------------------------------|----------------------------------|
--12/-11--11--11--11--11--11--11--|--12/-11--11--11--11--11--11--11--|
--x---x---x---x---x---x---x---x---|--x---x---x---x---x---x---x---x---|
--10/-9---9---9---9---9---9---9---|--10/-9---9---9---9---9---9---9---|
----------------------------------|----------------------------------|


                                                                          
----------------------------------|---------------|----------------------|
----------------------------------|---------------|----------------------|
--12/-11--11--11--11--11--11--11--|---------------|--11--------13--------|
--x---x---x---x---x---x---x---x---|---------------|----------------------|
--10/-9---9---9---9---9---9---9---|---------------|--9---------11--------|
----------------------------------|--7--8--9--10--|----------------------|


                                                                         
----------------------|--------------------------|----------------------|
----------------------|--------------------------|----------------------|
--14--------6----6----|--------------11--10------|----------------------|
----------------------|--------------------------|----------------------|
--12--------4----4----|--4--4--4--4--9---8-------|--4--4------4--4------|
----------------------|--------------------------|--2--2------2--2------|

[ Tab from: http://www.guitartabs.cc/tabs/s/sum_41/the_bitter_end_tab.html ]
                                                                                
-------------------|--------------------|-------------------|------------------|
-------------------|--------------------|-------------------|------------------|
-------------------|--------------------|-------------------|------------------|
-------------------|--------------------|--6----------------|------------------|
--4----------------|--------------4--4--|--4----------------|------------------|
--2----------------|--------------2--2--|-------------------|------------------|


                                                                                
-------------------|--------------------|-------------------|------------------|
-------------------|--------------------|-------------------|------------------|
-------------------|--------------------|-------------------|------------------|
-------------------|--------------------|--6----------------|------------------|
--4----------------|--------------4--4--|--4----------------|------------------|
--2----------------|--------------2--2--|-------------------|------------------|


                                                             
-------------------|--------------------|-------------------|
-------------------|--------------------|-------------------|
-------------------|--------------------|-------------------|
-------------------|--------------------|--6----------------|
--4----------------|--------------4--4--|--4----------------|
--2----------------|--------------2--2--|-------------------|


                                                                   
-------------------------|-------------------|--------------------|
-------------------------|-------------------|--------------------|
-------------------------|-------------------|--------------------|
-------------------------|-------------------|--------------------|
----------2----2----2----|--4----------------|--------------4--4--|
----------0----0----0----|--2----------------|--------------2--2--|


                                                                  
-------------------|------------------|--------------------------|
-------------------|------------------|--------------------------|
-------------------|------------------|--------------------------|
--6----------------|------------------|--------------------------|
--4----------------|------------------|--------4-----------4-----|
-------------------|------------------|--2--2--2--2--2--2--2--2--|


                                                                              
-------------------------|--------------------------|------------------------|
-------------------------|--------------------------|------------------------|
-------------------------|--------------------------|------------------------|
-----------5--------4----|-----------------5/-4--5--|------------------------|
--7--------3--3--3--2----|--------4--------3/-2--3--|--------4--------7------|
--5--5--5----------------|--2--2--2--2--2-----------|--2--2--2--2--2--5------|


                                                                                
--------------------------|-------------------------|--------------------------|
--------------------------|-------------------------|--------------------------|
--------------------------|-------------------------|--------------------------|
--------------------------|-----------5--------4----|-----------------5/-4--5--|
--------4-----------4-----|--7--------3--3--3--2----|--------4--------3/-2--3--|
--2--2--2--2--2--2--2--2--|--5--5--5----------------|--2--2--2--2--2-----------|


                                                                              
------------------------|--------------------------|-------------------------|
------------------------|--------------------------|-------------------------|
------------------------|--------------------------|-------------------------|
------------------------|--------------------------|-----------5--------4----|
--------4--------7------|--------4-----------4-----|--7--------3--3--3--2----|
--2--2--2--2--2--5------|--2--2--2--2--2--2--2--2--|--5--5--5----------------|


                                                                               
--------------------------|------------------------|--------------------------|
--------------------------|------------------------|--------------------------|
--------------------------|------------------------|--------------------------|
-----------------5/-4--5--|------------------------|--------------------------|
--------4--------3/-2--3--|--------4--------7------|--------4-----------4-----|
--2--2--2--2--2-----------|--2--2--2--2--2--5------|--2--2--2--2--2--2--2--2--|


                                                                              
-------------------------|--------------------------|------------------------|
-------------------------|--------------------------|------------------------|
-------------------------|--------------------------|------------------------|
-----------5--------4----|-----------------5/-4--5--|------------------------|
--7--------3--3--3--2----|--------4--------3/-2--3--|--------4--------7------|
--5--5--5----------------|--2--2--2--2--2-----------|--2--2--2--2--2--5------|


                                                                     
-------------------|----------------------------|-------------------|
-------------------|----------------------------|-------------------|
-------------------|--9-9-9-9-9----7-7-7-7-7----|--6----------------|
--4----------------|--9-9-9-9-9----7-7-7-7-7----|--6----------------|
--4----------------|--7-7-7-7-7----5-5-5-5-5----|--4----------------|
--2----------------|----------------------------|-------------------|


                                                                            
----------------------|--------------------------|-------------------------|
----------------------|--------------------------|-------------------------|
----------------------|--------------------------|-------------------------|
--7--7------6--6------|--------------------4-----|-------------------------|
--7--7------6--6------|--------4-----5-----2-----|--5-----4-----5-----4----|
--5--5------4--4------|--0--0--2--0--3--0-----0--|--3--0--2--0--3--0--2----|


                                                                               
--------------------------|------------------------|--------------------------|
--------------------------|------------------------|--------------------------|
--------------------------|------------------------|--------------------------|
--------------------4-----|------------------------|--------------------------|
--------4-----5-----2-----|--5-----4-----5----5----|--------4-----------4-----|
--0--0--2--0--3--0-----0--|--3--0--2--0--3----3----|--2--2--2--2--2--2--2--2--|


                                                                                
-------------------------|--------------------------|--------------------------|
-------------------------|--------------------------|--------------------------|
-------------------------|--------------------------|--------------------------|
-----------5--------4----|-----------------5/-4--5--|--------------------------|
--7--------3--3--3--2----|--------4--------3/-2--3--|--------4--------7--7--7--|
--5--5--5----------------|--2--2--2--2--2-----------|--2--2--2--2--2--5--5--5--|


                                                                                
--------------------------|-------------------------|--------------------------|
--------------------------|-------------------------|--------------------------|
--------------------------|-------------------------|--------------------------|
--------------------------|-----------5--------4----|-----------------5/-4--5--|
--------4-----------4-----|--7--------3--3--3--2----|--------4--------3/-2--3--|
--2--2--2--2--2--2--2--2--|--5--5--5----------------|--2--2--2--2--2-----------|


                                                       
------------------------|-----------------------------|
------------------------|-----------------------------|
------------------------|-----------------------------|
------------------------|--11------------9------------|
--------4--------7------|--9-----9-9-9-9-7----7-7-7-7-|
--2--2--2--2--2--5------|-----------------------------|


                                                     
-------------------------|--------------------------|
-------------------------|--------------------------|
-------------------------|--------------11--10------|
--7----------------------|--------------------------|
--5----5-5-5-5-7----7----|--4--4--4--4--9---8-------|
---------------5----5----|--------------------------|


                                                                      
----------------------------------|----------------------------------|
----------------------------------|----------------------------------|
--12/-11--11--11--11--11--11--11--|--12/-11--11--11--11--11--11--11--|
--x---x---x---x---x---x---x---x---|--x---x---x---x---x---x---x---x---|
--10/-9---9---9---9---9---9---9---|--10/-9---9---9---9---9---9---9---|
----------------------------------|----------------------------------|


                                                                          
----------------------------------|---------------|----------------------|
----------------------------------|---------------|----------------------|
--12/-11--11--11--11--11--11--11--|---------------|--11--------13--------|
--x---x---x---x---x---x---x---x---|---------------|----------------------|
--10/-9---9---9---9---9---9---9---|---------------|--9---------11--------|
----------------------------------|--7--8--9--10--|----------------------|


                                                                               
----------------------|--------------------------||---------------------------|
----------------------|--------------------------||---------------------------|
--14--------6----6----|--------------11--10------||*--------------------------|
----------------------|--------------------------||*--------------------------|
--12--------4----4----|--4--4--4--4--9---8-------||---------5/-4--------5/-4--|
----------------------|--------------------------||---0--2--3/-2--0--2--3/-2--|


                           3x                                                
---------------------------||--------------------|--------------------------|
---------------------------||--------------------|--------------------------|
--------------------------*||--------------------|--------------------------|
--------------------------*||--------------------|--------------------4-----|
--------5-----------4------||--4--------4--------|--------4-----5-----2-----|
--0--2-----2--0--2-----2---||--2--------2--------|--0--0--2--0--3--0-----0--|


                                                                              
-------------------------|--------------------------|------------------------|
-------------------------|--------------------------|------------------------|
-------------------------|--------------------------|------------------------|
-------------------------|--------------------4-----|------------------------|
--5-----4-----5-----4----|--------4-----5-----2-----|--5-----4-----5----5----|
--3--0--2--0--3--0--2----|--0--0--2--0--3--0-----0--|--3--0--2--0--3----3----|


                                                                                
--------------------------|-------------------------|--------------------------|
--------------------------|-------------------------|--------------------------|
--------------------------|-------------------------|--------------------------|
--------------------4-----|-------------------------|--------------------4-----|
--------4-----5-----2-----|--5-----4-----5-----4----|--------4-----5-----2-----|
--0--0--2--0--3--0-----0--|--3--0--2--0--3--0--2----|--0--0--2--0--3--0-----0--|


                                                                     
-------------------------|--------------------|--------------------||
-------------------------|--------------------|--------------------||
-------------------------|--------------------|--------------------||
-------------------------|--------------------|--------------------||
--5-----4-----5----5/-4--|--4--------7--------|--6--------5--------||
--3--0--2--0--3----3/-2--|--2--------5--------|--4--------3--------||



Here are the solo's the blan k spots are the other spots of the song. if u overlap all of these i think it should play
out right
Guitar 2
                                                                          
D#||--------------------|----------------------------|-------------------|
A#||--------------------|----------------------------|-------------------|
F#||*-------------------|--9-9-9-9-9----7-7-7-7-7----|--6----------------|
C#||*--4----------------|--9-9-9-9-9----7-7-7-7-7----|--6----------------|
G#||---4----------------|--7-7-7-7-7----5-5-5-5-5----|--4----------------|
D#||---2----------------|----------------------------|-------------------|


                                                     
-----------------------||------|------|------|------|
-----------------------||------|------|------|------|
----------------------*||------|------|------|------|
--7--7------6--6------*||------|------|------|------|
--7--7------6--6-------||------|------|------|------|
--5--5------4--4-------||------|------|------|------|


                                                        3x
|---------------------------|---------------------------||
|---------------------------|---------------------------||
|*--------------------------|--------------------------*||
|*--------------------------|--------------------------*||
|---------5/-4--------5/-4--|--------5-----------4------||
|---0--2--3/-2--0--2--3/-2--|--0--2-----2--0--2-----2---||


                                                                      
----------------------------------|----------------------------------|
----------------------------------|----------------------------------|
--12/-11--11--11--11--11--11--11--|--12/-11--11--11--11--11--11--11--|
--x---x---x---x---x---x---x---x---|--x---x---x---x---x---x---x---x---|
--10/-9---9---9---9---9---9---9---|--10/-9---9---9---9---9---9---9---|
----------------------------------|----------------------------------|


                                                   
----------------------------------|---------------|
----------------------------------|---------------|
--12/-11--11--11--11--11--11--11--|---------------|
--x---x---x---x---x---x---x---x---|---------------|
--10/-9---9---9---9---9---9---9---|---------------|
----------------------------------|--7--8--9--10--|


                                                                      
----------------------------------|----------------------------------|
----------------------------------|----------------------------------|
--12/-11--11--11--11--11--11--11--|--12/-11--11--11--11--11--11--11--|
--x---x---x---x---x---x---x---x---|--x---x---x---x---x---x---x---x---|
--10/-9---9---9---9---9---9---9---|--10/-9---9---9---9---9---9---9---|
----------------------------------|----------------------------------|


                                                                              
----------------------------------|---------------|--------------------------|
----------------------------------|---------------|--------------------------|
--12/-11--11--11--11--11--11--11--|---------------|--------------------------|
--x---x---x---x---x---x---x---x---|---------------|--------------------------|
--10/-9---9---9---9---9---9---9---|---------------|--------4-----------4-----|
----------------------------------|--7/-8--9--10--|--2--2--2--2--2--2--2--2--|


                                                                                
-------------------------|--------------------------|--------------------------|
-------------------------|--------------------------|--------------------------|
-------------------------|--------------------------|--------------------------|
-----------5--------4----|-----------------5/-4--5--|--------------------------|
--7--------3--3--3--2----|--------4--------3/-2--3--|--------4--------7--7--7--|
--5--5--5----------------|--2--2--2--2--2-----------|--2--2--2--2--2--5--5--5--|


                                                                                
--------------------------|-------------------------|--------------------------|
--------------------------|-------------------------|--------------------------|
--------------------------|-------------------------|--------------------------|
--------------------------|-----------5--------4----|-----------------5/-4--5--|
--------4-----------4-----|--7--------3--3--3--2----|--------4--------3/-2--3--|
--2--2--2--2--2--2--2--2--|--5--5--5----------------|--2--2--2--2--2-----------|


                                                       
------------------------|-----------------------------|
------------------------|-----------------------------|
------------------------|-----------------------------|
------------------------|--11------------9------------|
--------4--------7------|--9-----9-9-9-9-7----7-7-7-7-|
--2--2--2--2--2--5------|-----------------------------|


                                                     
-------------------------|--------------------------|
-------------------------|--------------------------|
-------------------------|--------------11--10------|
--7----------------------|--------------------------|
--5----5-5-5-5-7----7----|--4--4--4--4--9---8-------|
---------------5----5----|--------------------------|


                                                                      
----------------------------------|----------------------------------|
----------------------------------|----------------------------------|
--12/-11--11--11--11--11--11--11--|--12/-11--11--11--11--11--11--11--|
--x---x---x---x---x---x---x---x---|--x---x---x---x---x---x---x---x---|
--10/-9---9---9---9---9---9---9---|--10/-9---9---9---9---9---9---9---|
----------------------------------|----------------------------------|


                                                                          
----------------------------------|---------------|----------------------|
----------------------------------|---------------|----------------------|
--12/-11--11--11--11--11--11--11--|---------------|--11--------13--------|
--x---x---x---x---x---x---x---x---|---------------|----------------------|
--10/-9---9---9---9---9---9---9---|---------------|--9---------11--------|
----------------------------------|--7--8--9--10--|----------------------|


                                                                         
----------------------|--------------------------|----------------------|
----------------------|--------------------------|----------------------|
--14--------6----6----|--------------11--10------|----------------------|
----------------------|--------------------------|----------------------|
--12--------4----4----|--4--4--4--4--9---8-------|--4--4------4--4------|
----------------------|--------------------------|--2--2------2--2------|


                                                            
-------------------|-------------------|-------------------|
-------------------|-------------------|-------------------|
-------------------|-------------------|-------------------|
-------------------|-------------------|-------------------|
--4----------------|--2----------------|--7----------------|
--2----------------|--0----------------|--5----------------|


                                                                           
---------------------|--------------------------|-------------------------|
---------------------|--------------------------|-------------------------|
---------------------|--------------------------|-------------------------|
---------------------|--------------------------|-----------5--------4----|
--6--------5----5----|--------4-----------4-----|--7--------3--3--3--2----|
--4--------3----3----|--2--2--2--2--2--2--2--2--|--5--5--5----------------|


                                                      
--------------------------|--------------------------|
--------------------------|--------------------------|
--------------------------|--------------------------|
-----------------5/-4--5--|--------------------------|
--------4--------3/-2--3--|--------4--------7--7--7--|
--2--2--2--2--2-----------|--2--2--2--2--2--5--5--5--|


                                                                                
--------------------------|-------------------------|--------------------------|
--------------------------|-------------------------|--------------------------|
--------------------------|-------------------------|--------------------------|
--------------------------|-----------5--------4----|-----------------5/-4--5--|
--------4-----------4-----|--7--------3--3--3--2----|--------4--------3/-2--3--|
--2--2--2--2--2--2--2--2--|--5--5--5----------------|--2--2--2--2--2-----------|


                                                       
------------------------|-----------------------------|
------------------------|-----------------------------|
------------------------|-----------------------------|
------------------------|--11------------9------------|
--------4--------7------|--9-----9-9-9-9-7----7-7-7-7-|
--2--2--2--2--2--5------|-----------------------------|


                                                     
-------------------------|--------------------------|
-------------------------|--------------------------|
-------------------------|--------------11--10------|
--7----------------------|--------------------------|
--5----5-5-5-5-7----7----|--4--4--4--4--9---8-------|
---------------5----5----|--------------------------|


                                                                      
----------------------------------|----------------------------------|
----------------------------------|----------------------------------|
--12/-11--11--11--11--11--11--11--|--12/-11--11--11--11--11--11--11--|
--x---x---x---x---x---x---x---x---|--x---x---x---x---x---x---x---x---|
--10/-9---9---9---9---9---9---9---|--10/-9---9---9---9---9---9---9---|
----------------------------------|----------------------------------|


                                                                          
----------------------------------|---------------|----------------------|
----------------------------------|---------------|----------------------|
--12/-11--11--11--11--11--11--11--|---------------|--11--------13--------|
--x---x---x---x---x---x---x---x---|---------------|----------------------|
--10/-9---9---9---9---9---9---9---|---------------|--9---------11--------|
----------------------------------|--7--8--9--10--|----------------------|


                                                                         
----------------------|--------------------------|----------------------|
----------------------|--------------------------|----------------------|
--14--------6----6----|--------------11--10------|----------------------|
----------------------|--------------------------|----------------------|
--12--------4----4----|--4--4--4--4--9---8-------|--4--4------4--4------|
----------------------|--------------------------|--2--2------2--2------|


                                                                                
-------------------|--------------------|-------------------|------------------|
-------------------|--------------------|-------------------|------------------|
-------------------|--------------------|-------------------|------------------|
-------------------|--------------------|--6----------------|------------------|
--4----------------|--------------4--4--|--4----------------|------------------|
--2----------------|--------------2--2--|-------------------|------------------|


                                                                                
-------------------|--------------------|-------------------|------------------|
-------------------|--------------------|-------------------|------------------|
-------------------|--------------------|-------------------|------------------|
-------------------|--------------------|--6----------------|------------------|
--4----------------|--------------4--4--|--4----------------|------------------|
--2----------------|--------------2--2--|-------------------|------------------|


                                                             
-------------------|--------------------|-------------------|
-------------------|--------------------|-------------------|
-------------------|--------------------|-------------------|
-------------------|--------------------|--6----------------|
--4----------------|--------------4--4--|--4----------------|
--2----------------|--------------2--2--|-------------------|


                                                                   
-------------------------|-------------------|--------------------|
-------------------------|-------------------|--------------------|
-------------------------|-------------------|--------------------|
-------------------------|-------------------|--------------------|
----------2----2----2----|--4----------------|--------------4--4--|
----------0----0----0----|--2----------------|--------------2--2--|


                                                                  
-------------------|------------------|--------------------------|
-------------------|------------------|--------------------------|
-------------------|------------------|--------------------------|
--6----------------|------------------|--------------------------|
--4----------------|------------------|--------4-----------4-----|
-------------------|------------------|--2--2--2--2--2--2--2--2--|


                                                                              
-------------------------|--------------------------|------------------------|
-------------------------|--------------------------|------------------------|
-------------------------|--------------------------|------------------------|
-----------5--------4----|-----------------5/-4--5--|------------------------|
--7--------3--3--3--2----|--------4--------3/-2--3--|--------4--------7------|
--5--5--5----------------|--2--2--2--2--2-----------|--2--2--2--2--2--5------|


                                                                                
--------------------------|-------------------------|--------------------------|
--------------------------|-------------------------|--------------------------|
--------------------------|-------------------------|--------------------------|
--------------------------|-----------5--------4----|-----------------5/-4--5--|
--------4-----------4-----|--7--------3--3--3--2----|--------4--------3/-2--3--|
--2--2--2--2--2--2--2--2--|--5--5--5----------------|--2--2--2--2--2-----------|


                                                                              
------------------------|--------------------------|-------------------------|
------------------------|--------------------------|-------------------------|
------------------------|--------------------------|-------------------------|
------------------------|--------------------------|-----------5--------4----|
--------4--------7------|--------4-----------4-----|--7--------3--3--3--2----|
--2--2--2--2--2--5------|--2--2--2--2--2--2--2--2--|--5--5--5----------------|


                                                                               
--------------------------|------------------------|--------------------------|
--------------------------|------------------------|--------------------------|
--------------------------|------------------------|--------------------------|
-----------------5/-4--5--|------------------------|--------------------------|
--------4--------3/-2--3--|--------4--------7------|--------4-----------4-----|
--2--2--2--2--2-----------|--2--2--2--2--2--5------|--2--2--2--2--2--2--2--2--|


                                                                              
-------------------------|--------------------------|------------------------|
-------------------------|--------------------------|------------------------|
-------------------------|--------------------------|------------------------|
-----------5--------4----|-----------------5/-4--5--|------------------------|
--7--------3--3--3--2----|--------4--------3/-2--3--|--------4--------7------|
--5--5--5----------------|--2--2--2--2--2-----------|--2--2--2--2--2--5------|


                                                                     
-------------------|----------------------------|-------------------|
-------------------|----------------------------|-------------------|
-------------------|--9-9-9-9-9----7-7-7-7-7----|--6----------------|
--4----------------|--9-9-9-9-9----7-7-7-7-7----|--6----------------|
--4----------------|--7-7-7-7-7----5-5-5-5-5----|--4----------------|
--2----------------|----------------------------|-------------------|


                                                                            
----------------------|--------------------------|-------------------------|
----------------------|--------------------------|-------------------------|
----------------------|--------------------------|-------------------------|
--7--7------6--6------|--------------------4-----|-------------------------|
--7--7------6--6------|--------4-----5-----2-----|--5-----4-----5-----4----|
--5--5------4--4------|--0--0--2--0--3--0-----0--|--3--0--2--0--3--0--2----|


                                                                               
--------------------------|------------------------|--------------------------|
--------------------------|------------------------|--------------------------|
--------------------------|------------------------|--------------------------|
--------------------4-----|------------------------|--------------------------|
--------4-----5-----2-----|--5-----4-----5----5----|--------4-----------4-----|
--0--0--2--0--3--0-----0--|--3--0--2--0--3----3----|--2--2--2--2--2--2--2--2--|


                                                                                
-------------------------|--------------------------|--------------------------|
-------------------------|--------------------------|--------------------------|
-------------------------|--------------------------|--------------------------|
-----------5--------4----|-----------------5/-4--5--|--------------------------|
--7--------3--3--3--2----|--------4--------3/-2--3--|--------4--------7--7--7--|
--5--5--5----------------|--2--2--2--2--2-----------|--2--2--2--2--2--5--5--5--|


                                                                                
--------------------------|-------------------------|--------------------------|
--------------------------|-------------------------|--------------------------|
--------------------------|-------------------------|--------------------------|
--------------------------|-----------5--------4----|-----------------5/-4--5--|
--------4-----------4-----|--7--------3--3--3--2----|--------4--------3/-2--3--|
--2--2--2--2--2--2--2--2--|--5--5--5----------------|--2--2--2--2--2-----------|


                                                       
------------------------|-----------------------------|
------------------------|-----------------------------|
------------------------|-----------------------------|
------------------------|--11------------9------------|
--------4--------7------|--9-----9-9-9-9-7----7-7-7-7-|
--2--2--2--2--2--5------|-----------------------------|


                                                     
-------------------------|--------------------------|
-------------------------|--------------------------|
-------------------------|--------------11--10------|
--7----------------------|--------------------------|
--5----5-5-5-5-7----7----|--4--4--4--4--9---8-------|
---------------5----5----|--------------------------|


                                                                      
----------------------------------|----------------------------------|
----------------------------------|----------------------------------|
--12/-11--11--11--11--11--11--11--|--12/-11--11--11--11--11--11--11--|
--x---x---x---x---x---x---x---x---|--x---x---x---x---x---x---x---x---|
--10/-9---9---9---9---9---9---9---|--10/-9---9---9---9---9---9---9---|
----------------------------------|----------------------------------|


                                                                          
----------------------------------|---------------|----------------------|
----------------------------------|---------------|----------------------|
--12/-11--11--11--11--11--11--11--|---------------|--11--------13--------|
--x---x---x---x---x---x---x---x---|---------------|----------------------|
--10/-9---9---9---9---9---9---9---|---------------|--9---------11--------|
----------------------------------|--7--8--9--10--|----------------------|


                                                                               
----------------------|--------------------------||---------------------------|
----------------------|--------------------------||---------------------------|
--14--------6----6----|--------------11--10------||*--------------------------|
----------------------|--------------------------||*--------------------------|
--12--------4----4----|--4--4--4--4--9---8-------||---------5/-4--------5/-4--|
----------------------|--------------------------||---0--2--3/-2--0--2--3/-2--|


                           3x                                                
---------------------------||--------------------|--------------------------|
---------------------------||--------------------|--------------------------|
--------------------------*||--------------------|--------------------------|
--------------------------*||--------------------|--------------------4-----|
--------5-----------4------||--4--------4--------|--------4-----5-----2-----|
--0--2-----2--0--2-----2---||--2--------2--------|--0--0--2--0--3--0-----0--|


                                                                              
-------------------------|--------------------------|------------------------|
-------------------------|--------------------------|------------------------|
-------------------------|--------------------------|------------------------|
-------------------------|--------------------4-----|------------------------|
--5-----4-----5-----4----|--------4-----5-----2-----|--5-----4-----5----5----|
--3--0--2--0--3--0--2----|--0--0--2--0--3--0-----0--|--3--0--2--0--3----3----|


                                                                                
--------------------------|-------------------------|--------------------------|
--------------------------|-------------------------|--------------------------|
--------------------------|-------------------------|--------------------------|
--------------------4-----|-------------------------|--------------------4-----|
--------4-----5-----2-----|--5-----4-----5-----4----|--------4-----5-----2-----|
--0--0--2--0--3--0-----0--|--3--0--2--0--3--0--2----|--0--0--2--0--3--0-----0--|


                                                                     
-------------------------|--------------------|--------------------||
-------------------------|--------------------|--------------------||
-------------------------|--------------------|--------------------||
-------------------------|--------------------|--------------------||
--5-----4-----5----5/-4--|--4--------7--------|--6--------5--------||
--3--0--2--0--3----3/-2--|--2--------5--------|--4--------3--------||


Enjoy!
Comments