Sum 41 - Thanks For Nothing Chords & Tabs

 

Thanks For Nothing Chords & Tabs

Sum 41 Chords & Tabs

Version: 8 Type: Tab 0 ratings
1 star 2 stars 3 stars 4 stars 5 stars
comments

Thanks For Nothing Tab

   
-------------------------------------------------------------------------------
			     Thanks For Nothing - Sum 41
-------------------------------------------------------------------------------
Tabbed by: Dan-E
Email: big_bad_bro90@hotmail.com

Thhis is a pretty hard tab to make and I hope I did it well. If you lsten to the song
you'll find out everything you need to know about the tab.
If you need any help just mail me: big_bad_bro90@hotmail.com
________________Enjoy!!





Tuning:DGCFAd

Intro:
d|---------------------------------------------------------------------------|
A|---------------------------------------------------------------------------|
F|-9-9-x-x--5-5-x-x-----------7-7-x-x--9-9-x-x--5-5-x-x-----------7-7-x-x----|
C|-9-9-x-x--5-5-x-x--5-5-x-x--7-7-x-x--9-9-x-x--5-5-x-x--5-5-x-x--7-7-x-x----|
G|-7-7-x-x--3-3-x-x--5-5-x-x--5-5-x-x--7-7-x-x--3-3-x-x--5-5-x-x--5-5-x-x----|
D|-------------------3-3-x-x-----------------------------3-3-x-x-------------|

Guitar 1 (Dereck):
d|---------------------------------------------------------------------------|
A|---------------------------------------------------------------------------|
F|-9-9-9-9-5-5-5-5---------7-7-7-7--9-9-9-9-5-5-5-5---------7-7-7-7----------|
C|-9-9-9-9-5-5-5-5-5-5-5-5-7-7-7-7--9-9-9-9-5-5-5-5-5-5-5-5-7-7-7-7----------|
G|-7-7-7-7-3-3-3-3-5-5-5-5-5-5-5-5--7-7-7-7-3-3-3-3-5-5-5-5-5-5-5-5----------|
D|-----------------3-3-3-3--------------------------3-3-3-3------------------|

Guitar 2 (Dave):
d|---------------------------------------------------------------------------|
A|---------------------------------------------------------------------------|
F|---------------------------------------------------------------------------|
C|-2-4-5-4---4-5-4---4-5-4---5-4-2--2-4-5-4---4-5-4---4-5-4---5-4-2----------|
G|---------3---------------5----------------3---------------5----------------|
D|-----------------3--------------------------------3------------------------|


Verse (both guitars):
d|---------------------------------------------------------------------------|
A|---------------------------------------------------------------------------|
F|-9-9--5-5-5-5-------7-7-x-x-/-9-9--5-5-5-5-------7-7-x-x-/-----------------|
C|-9-9--5-5-5-5--5-5--7-7-x-x-/-9-9--5-5-5-5--5-5--7-7-x-x-/-----------------|
G|-7-7--3-3-3-3--5-5--5-5-x-x-/-7-7--3-3-3-3--5-5--5-5-x-x-/-----------------|
D|---------------3-3--------------------------3-3----------------------------|

d|---------------------------------------------------------------------------|
A|---------------------------------------------------------------------------|
F|-9-9-9-9-5-5-5-5---------7-7-7-7--9-9-9-9-5-5-5-5--------------------------|
C|-9-9-9-9-5-5-5-5-5-5-5-5-7-7-7-7--9-9-9-9-5-5-5-5--------------------------|
G|-7-7-7-7-3-3-3-3-5-5-5-5-5-5-5-5--7-7-7-7-3-3-3-3--------------------------|
D|-----------------3-3-3-3---------------------------------------------------|


Chorus (both guitars):
d|---------------------------------------------------------------------------|
A|---------------------------------------------------------------------------|
F|---------5-5-5-5---------7-7-7-7---------5-5-5-5---------7-7-7-7-----------|
C|-2-2-2-2-5-5-5-5-5-5-5-5-7-7-7-7-2-2-2-2-5-5-5-5-5-5-5-5-7-7-7-7-----------|
G|-2-2-2-2-3-3-3-3-5-5-5-5-5-5-5-5-2-2-2-2-3-3-3-3-5-5-5-5-5-5-5-5-----------|
D|-0-0-0-0---------3-3-3-3---------0-0-0-0---------3-3-3-3-------------------|


Riff between the chorus and the verse 2
Guitar 1 (Dereck):
d|---------------------------------------------------------------------------|
A|---------------------------------------------------------------------------|
F|-9-9-9-9-5-5-5-5---------7-7-7-7--9-9-9-9-5-5-5-5---------7-7-7-7----------|
C|-9-9-9-9-5-5-5-5-5-5-5-5-7-7-7-7--9-9-9-9-5-5-5-5-5-5-5-5-7-7-7-7----------|
G|-7-7-7-7-3-3-3-3-5-5-5-5-5-5-5-5--7-7-7-7-3-3-3-3-5-5-5-5-5-5-5-5----------|
D|-----------------3-3-3-3--------------------------3-3-3-3------------------|


Riff between the chrous and the verse 2
Guitar 2 (Dave):
d|---------------------------------------------------------------------------|
A|---------------------------------------------------------------------------|
F|---------------------------------------------------------------------------|
C|-2-4-5-4---4-5-4---4-5-4---5-4-2--2-4-5-4---4-5-4---4-5-4---5-4-2----------|
G|---------3---------------5----------------3---------------5----------------|
D|-----------------3--------------------------------3------------------------|

[ Tab from: http://www.guitartabs.cc/tabs/s/sum_41/thanks_for_nothing_tab_ver_8.html ]
Verse (both guitars):
d|---------------------------------------------------------------------------|
A|---------------------------------------------------------------------------|
F|-9-9--5-5-5-5-------7-7-x-x-/-9-9--5-5-5-5-------7-7-x-x-/-----------------|
C|-9-9--5-5-5-5--5-5--7-7-x-x-/-9-9--5-5-5-5--5-5--7-7-x-x-/-----------------|
G|-7-7--3-3-3-3--5-5--5-5-x-x-/-7-7--3-3-3-3--5-5--5-5-x-x-/-----------------|
D|---------------3-3--------------------------3-3----------------------------|

d|---------------------------------------------------------------------------|
A|---------------------------------------------------------------------------|
F|-9-9-9-9-5-5-5-5---------7-7-7-7--9-9-9-9-5-5-5-5--------------------------|
C|-9-9-9-9-5-5-5-5-5-5-5-5-7-7-7-7--9-9-9-9-5-5-5-5--------------------------|
G|-7-7-7-7-3-3-3-3-5-5-5-5-5-5-5-5--7-7-7-7-3-3-3-3--------------------------|
D|-----------------3-3-3-3---------------------------------------------------|


Chorus (both guitars):
d|---------------------------------------------------------------------------|
A|---------------------------------------------------------------------------|
F|---------5-5-5-5---------7-7-7-7---------5-5-5-5---------7-7-7-7-----------|
C|-2-2-2-2-5-5-5-5-5-5-5-5-7-7-7-7-2-2-2-2-5-5-5-5-5-5-5-5-7-7-7-7-----------|
G|-2-2-2-2-3-3-3-3-5-5-5-5-5-5-5-5-2-2-2-2-3-3-3-3-5-5-5-5-5-5-5-5-----------|
D|-0-0-0-0---------3-3-3-3---------0-0-0-0---------3-3-3-3-------------------|


Bridge intro:
d|---------------------------------------------------------------------------|
A|---------------------------------------------------------------------------|
F|-9-12-5-2---9-12-5-2-------------------------------------------------------|
C|-9-12-5-2-5-9-12-5-2-5-----------------------------------------------------|
G|-7-10-3-0-5-7-10-3-0-5-----------------------------------------------------|
D|----------3----------3-----------------------------------------------------|


Bridge
Guitar 1 (Dereck) - (tempo - 32 i think):
d|---------------------------------------------------------------------------|
A|---------------------------------------------------------------------------|
F|-9x9x9x9x9x9x9x9x-5x5x5x5x5x5x5x5x------------------7x7x-7-7x7x-7----------|
C|-9x9x9x9x9x9x9x9x-5x5x5x5x5x5x5x5x-5x5x5x5x5x5x5x5x-7x7x-7-7x7x-7----------|
G|-7x7x7x7x7x7x7x7x-3x3x3x3x3x3x3x3x-5x5x5x5x5x5x5x5x-5x5x-5-5x5x-5----------|
D|-----------------------------------3x3x3x3x3x3x3x3x------------------------|


Bridge
Guitar 2 (Dave) play along with the first guitar:
d|---------------------------------------------------------------------------|
A|---------------------------------------------------------------------------|
F|---------------------------------------------------------------------------|
C|-5p4-6p4-7p5-3h5-4p2-5p4-7-75p4-6p4-7p5-3h5-4p2-5p4-7-7-------------------|
G|---------------------------------------------------------------------------|
D|---------------------------------------------------------------------------|



Chorus (both guitars):
d|---------------------------------------------------------------------------|
A|---------------------------------------------------------------------------|
F|---------5-5-5-5---------7-7-7-7----------5-5-5-5---------7-7-7-7----------|
C|-2-2-2-2-5-5-5-5-5-5-5-5-7-7-7-7--2-2-2-2-5-5-5-5-5-5-5-5-7-7-7-7----------|
G|-2-2-2-2-3-3-3-3-5-5-5-5-5-5-5-5--2-2-2-2-3-3-3-3-5-5-5-5-5-5-5-5----------|
D|-0-0-0-0---------3-3-3-3----------0-0-0-0---------3-3-3-3------------------|


Outro
Guitar 1 (Dereck):
d|---------------------------------------------------------------------------|
A|---------------------------------------------------------------------------|
F|-9-9-9-9-5-5-5-5---------7-7-7-7--9-9-9-9-5-5-5-5---------7-7-7-7----------|
C|-9-9-9-9-5-5-5-5-5-5-5-5-7-7-7-7--9-9-9-9-5-5-5-5-5-5-5-5-7-7-7-7----------|
G|-7-7-7-7-3-3-3-3-5-5-5-5-5-5-5-5--7-7-7-7-3-3-3-3-5-5-5-5-5-5-5-5----------|
D|-----------------3-3-3-3--------------------------3-3-3-3------------------|


Outro
Guitar 2 (Dave):
d|---------------------------------------------------------------------------|
A|---------------------------------------------------------------------------|
F|---------------------------------------------------------------------------|
C|-2-4-5-4---4-5-4---4-5-4---5-4-2--2-4-5-4---4-5-4---4-5-4---5-4-2----------|
G|---------3---------------5----------------3---------------5----------------|
D|-----------------3--------------------------------3------------------------|

I'm not sure if everything is correct, but try to make the best of it.
Have fun!:P:)

| /  slide up
| \  slide down
| h  hammer-on
| p  pull-off
| ~  vibrato
| +  harmonic
| x  Mute note
===============================================================================
Comments