Sum 41 - Thanks For Nothing Chords & Tabs

 

Thanks For Nothing Chords & Tabs

Sum 41 Chords & Tabs

Version: 7 Type: Tab 0 ratings
1 star 2 stars 3 stars 4 stars 5 stars
comments

Thanks For Nothing Tab

Song:  "Thanks for Nothing"
Band: Sum 41
Performed by: Dave (leadguitar), 
Deryck (Vocals & rythmguitar) , Cone (Bass), 
Steve'o (drummer).
Intro &Verse originally tabbed by T.O.(Tor Odin) from Spatch,
my E-mail is   

Standar tuning - EADBGe

Guitar 1= "Dave" 
Guitar 2= "Deryck" 

v=upstroke
^=downstroke
h=hammer on
pm|---|= palm mute
x=muted string
~=Vibrate

Intro*
   ^ v   ^ v ^ v  ^ v ^ v  ^ v ^ v
|------------------------------------------------|
|------------------------------------------------|
|--8-8---4-4-4-4-----------6-6-6-6---------------|
|--8-8---4-4-4-4--4-4-4-4--6-6-6-6---------------|
|--6-6---2-2-2-2--4-4-4-4--4-4-4-4---------------|
|-----------------2-2-2-2------------------------|

   ^ v ^ v ^ v ^ v  ^ v ^ v  ^ v ^ 
|-------------------------------------------------|
|-------------------------------------------------|
|--8-8-8-8-4-4-4-4-----------6-6-6-:--------------|
|--8-8-8-8-4-4-4-4--4-4-4-4--6-6-6-:--------------|
|--6-6-6-6-2-2-2-2--4-4-4-4--4-4-4-:--------------|
|-------------------2-2-2-2-----------------------|

(Gtr.1) 
|---------------------------------------------------------|
|---------------------------------------------------------|
|---------------------------------------------------------|
|-1-1--3-4--4--------3-4--4--------3-4--4----6--6-4--3----|
|---------------2-2------------------------------------4--|
|-----------------------------2-2-------------------------|x2

(Gtr.2)  Play those at the same time 
|-----------------------------------------------------------------|
|-----------------------------------------------------------------|
|---8-8-8-8-8-8-8-8-4-4-4-4-4-4-4-4---------------6-6-6-6-6-6-6-6-|
|---8-8-8-8-8-8-8-8-4-4-4-4-4-4-4-4-4-4-4-4-4-4-4-6-6-6-6-6-6-6-6-|
|---6-6-6-6-6-6-6-6-2-2-2-2-2-2-2-2-4-4-4-4-4-4-4-4-4-4-4-4-4-4-4-|
|-----------------------------------2-2-2-2-2-2-2-----------------|x2

Verse*
(Gtr.1)
|-----------------------------------------------------------------|
|-----------------------------------------------------------------|
|---8+x-----4+x-----4+x-------------6+x-----6-x-x-----6-x-x-------|
|---8+x-----2+x-----4+x-----4+x-----6+x-----6-x-x-----6-x-x-------|
|---6+x-----2+x-----2+x-----4+x-----4+x-----4-x-x-----4-x-x-------|
|---------------------------4+x-----------------------------------|x2
P.m.                                       |- - -|   |- - -|     

|-----------------------------------------------------------------|
|-----------------------------------------------------------------|
|---8-8-8-8-8-8-8-8-4-4-4-4-4-4-4-4---------------6-6-6-6-6-6-6-6-|
|---8-8-8-8-8-8-8-8-4-4-4-4-4-4-4-4-4-4-4-4-4-4-4-6-6-6-6-6-6-6-6-|
|---6-6-6-6-6-6-6-6-2-2-2-2-2-2-2-2-4-4-4-4-4-4-4-4-4-4-4-4-4-4-4-|
|-----------------------------------2-2-2-2-2-2-2-----------------|
[ Tab from: http://www.guitartabs.cc/tabs/s/sum_41/thanks_for_nothing_tab_ver_7.html ]
|-----------------------------------------------------------------|
|-----------------------------------------------------------------|
|---8-8-8-8-8-8-8-8-4-4-4-4-4-4-4-4---------------6-6-6-6-6-6-6-6-|
|---8-8-8-8-8-8-8-8-4-4-4-4-4-4-4-4-4-4-4-4-4-4-4-6-6-6-6-6-6-6-6-|
|---6-6-6-6-6-6-6-6-2-2-2-2-2-2-2-2-4-4-4-4-4-4-4-4-4-4-4-4-4-4-4-|
|-----------------------------------2-2-2-2-2-2-2-----------------|


Chorus*
|---------------------------------------------------------------------|
|---------------------------------------------------------------------|
|---2-2-2-2-2-2-2-2-4-4-4-4-4-4-4-4---------------6-6-6-6-6-6-6-6-x-x-|
|---2-2-2-2-2-2-2-2-4-4-4-4-4-4-4-4-4-4-4-4-4-4-4-6-6-6-6-6-6-6-6-x-x-|
|---0-0-0-0-0-0-0-0-2-2-2-2-2-2-2-2-4-4-4-4-4-4-4-4-4-4-4-4-4-4-4-x-x-|
|-----------------------------------2-2-2-2-2-2-2---------------------|

(Gtr.2)
intro part, Verse part and Chorus again.
|------------------------------------------------------------------|
|------------------------------------------------------------------|
|---8-8-8-8-8-8-8-8-4-4-4-4-4-4-4-4------------------6-6-6:-4-4-4:-|
|---8-8-8-8-8-8-8-8-4-4-4-4-4-4-4-4-4-4-4-4-4-4-4----6-6-6:-4-4-4:-|
|---6-6-6-6-6-6-6-6-2-2-2-2-2-2-2-2-4-4-4-4-4-4-4----4-4-4:-2-2-2:-|
|-----------------------------------2-2-2-2-2-2-2------------------|
P.m|- - - - - - - - - - - - - - - - - - - - - - -|  |- - -||- - -| 
        Fast heavy palm-muted

(Gtr.1) 
|---------------------------------------------------------|
|---------------------------------------------------------|
|---------------------------------------------------------|
|-1-1--3-4--4--------3-4--4--------3-4--4----6--6-4--3----|
|---------------2-2------------------------------------4--|
|-----------------------------2-2-------------------------|
 |- -  - -  - ||- -  - -  -| |- -  - -  -|  |-  - -  - -|
          P.m.

Then Chorus.......
|---------------------------------------------------------------------|
|---------------------------------------------------------------------|
|---2-2-2-2-2-2-2-2-4-4-4-4-4-4-4-4---------------6-6-6-6-6-6-6-6-x-x-|
|---2-2-2-2-2-2-2-2-4-4-4-4-4-4-4-4-4-4-4-4-4-4-4-6-6-6-6-6-6-6-6-x-x-|
|---0-0-0-0-0-0-0-0-2-2-2-2-2-2-2-2-4-4-4-4-4-4-4-4-4-4-4-4-4-4-4-x-x-|
|-----------------------------------2-2-2-2-2-2-2---------------------|

(Gtr.2)
|-----------------------------------------------------------------|
|-----------------------------------------------------------------|
|---8-8-8-8-8-8-8-8-4-4-4-4-4-4-4-4---------------6-6-6-6-6-6-6-6-|
|---8-8-8-8-8-8-8-8-4-4-4-4-4-4-4-4-4-4-4-4-4-4-4-6-6-6-6-6-6-6-6-|
|---6-6-6-6-6-6-6-6-2-2-2-2-2-2-2-2-4-4-4-4-4-4-4-4-4-4-4-4-4-4-4-|
|-----------------------------------2-2-2-2-2-2-2-----------------|x2

(Gtr.1) Play those at the same time
|---------------------------------------------------------|
|---------------------------------------------------------|
|---------------------------------------------------------|
|-1-1--3-4--4--------3-4--4--------3-4--4----6--6-4--3----|
|---------------2-2------------------------------------4--|
|-----------------------------2-2-------------------------|x2
(Thanks for nothing.............nothings gonna change)

|----------|
|----------|
|---8:-----|
|---8:-----|
|---6:-----|
|----------|
Comments