Sum 41 - Thanks For Nothing Chords & Tabs

 

Thanks For Nothing Chords & Tabs

Sum 41 Chords & Tabs

Version: 6 Type: Tab 0 ratings
1 star 2 stars 3 stars 4 stars 5 stars
comments

Thanks For Nothing Tab

   
----------------------------------------------------------------------------
                 "Thanks For Nothing"-Sum 41
----------------------------------------------------------------------------
Tabbed By-Kayla Kvasny
Email-LuCkYCaReBeAr1786@hotmail.com

Tuning-regular

*Intro*
e------------------------------------------
B------------------------------------------
G-7-7--7-0---3-3--3-0--------------5-5--5-0
D-7-7--7-0---3-3--3-0---3-3--3-0---5-5--5-0
A-5-5--5-0---1-1--1-0---3-3--3-0---3-3--3-0
E-----------------------1-1--1-0-----------

e-----------------------------------
B-----------------------------------
G-7-7--7-0---3-3--3-0--------------5~
D-7-7--7-0---3-3--3-0---3-3--3-0---5~
A-5-5--5-0---1-1--1-0---3-3--3-0---3~
E-----------------------1-1--1-0----

*Intro Part2*
e---------------------------------
B---------------------------------
G--------------------------------- x2
D-0-2-3-2-00-232---2-3-2-----3-2--
A------------------------3-3-----3
E----------------1----------------
[ Tab from: http://www.guitartabs.cc/tabs/s/sum_41/thanks_for_nothing_tab_ver_6.html ]
*Verse*
e--------------------------
B--------------------------
G-------------------------- x2
D-77---33-33--------55-**-5
A-55---11-11---33---33-**-3
E--------------11----------

*Pre-Chorus*
e-----------------------------------------------------------------------
B-----------------------------------------------------------------------
G-----------------------------------------------------------------------
D-7-7-7-7---3-3-3-3-------------5-5-5-5---7-7-7-7---3-3-3-3-------------
A-5-5-5-5---1-1-1-1---3-3-3-3---3-3-3-3---5-5-5-5---1-1-1-1---3-3-3-3---
E---------------------1-1-1-1---------------------------------1-1-1-1---

e--------
B--------
G--------
D-3-3-5-5
A-1-1-3-3
E--------

*Chorus*
e-------------------------------------------- -------------------
B-------------------------------------------- -------------------
G----------------------------------------- x2 ---(To Intro Part2)
D-7(x8)---3(x8)-----------5-5-5-5--3-3-5-5--- -7-----------------
A-5-------1-------3(x8)---3-3-3-3--1-1-3-3--- -5-----------------
E-----------------1-------------------------- -------------------

*~*~*~If u got any questions or comments, email me or IM me on AIM
(YoUrMoM41327)...hope u enjoy=D~*~*~*
Comments