Sum 41 - Thanks For Nothing Chords & Tabs

 

Thanks For Nothing Chords & Tabs

Sum 41 Chords & Tabs

Version: 5 Type: Tab 0 ratings
1 star 2 stars 3 stars 4 stars 5 stars
comments

Thanks For Nothing Tab

Artist: Sum 41.
Song: Thanks for Nothing.
Album: Does This Look Infected?
Transcribed by: Paul
E-mail: lplplplplplp@linkinpark.com


Quiet a few people have tried to tab this song but most of them are wrong. So
here's my tab, tell me what you think about it. It's played in Drop-D tuning.

                    Intro\Guitar 1
E|-------------------------------------------------|
B|-------------------------------------------------|
G|-7-7--3-3-------5-5--5-5--3-3-------5------------|
D|-7-7--3-3--3-3--5-5--5-5--3-3--3-3--5------------|
A|-5-5--1-1--3-3--3-3--7-7--1-1--3-3--3------------|
D|-----------3-3-----------------3-3---------------|

   guitar 1 still plays intro, guitar 2 plays this, reapet 2x
E|-------------------------------------------------|
B|-------------------------------------------------|
G|-9-10-10--9--10-10-9--10-10--10--10--9--5--------|
D|-------------------------------------------------|
A|-7-8--8---7--8--8--7--8--8---12--8---7--3--------|
D|-------------------------------------------------|

       Play this when he starts singing reapet 2x. 
E|-------------------------------------------------|
B|-------------------------------------------------|
G|-7-7--3-3-3-3------5pm-5pm-5pm-5pm--5------------|
D|-7-7--3-3-3-3-3-3--5pm-5pm-5pm-5pm--5------------|
A|-5-5--1-1-1-1-3-3--3pm-3pm-3pm-3pm--3------------|
D|--------------3-3--------------------------------|

                     Pre-chorus reapet 2x.
E|----------------------------------------------------------------|
B|----------------------------------------------------------------|
G|-7-7-7-7-7-7--3-3-3-3-3-3---------------5-5-5-5-5-5-5-----------|
D|-7-7-7-7-7-7--3-3-3-3-3-3--3-3-3-3-3-3--5-5-5-5-5-5-5-----------|
A|-5-5-5-5-5-5--1-1-1-1-1-1--3-3-3-3-3-3--3-3-3-3-3-3-3-----------|
D|---------------------------3-3-3-3-3-3--------------------------|
[ Tab from: http://www.guitartabs.cc/tabs/s/sum_41/thanks_for_nothing_tab_ver_5.html ]
                  Chorus reapet 2x.                         
E|-------------------------------------------------------|
B|-------------------------------------------------------|
G|------------5-5-5-5-5-------------5-5-5-5-5------------|
D|-0-0-0-0-0-------------3-3-3-3-3-----------------------|
A|-0-0-0-0-0--3-3-3-3-3--3-3-3-3-3--3-3-3-3-3------------|
D|-0-0-0-0-0-------------3-3-3-3-3-----------------------|

    Pre-solo reapet 2x.
E|------------------------------|
B|------------------------------|
G|------------------------------|
D|-0-----3--2-------------------|
A|-0-----3--2-------------------|
D|-0-----3--2--5-3-0------------|

       solo Played by guitar 2 reapet 2x.
E|----------------------------------------------|
B|----------------------------------------------|
G|------------------------------5-5-------------|
D|----------------------------------------------|
A|-7-7-7h8--10-10--7h8-7-7-8p7--3-3-------------|
D|----------------------------------------------|

 When guitar 2 plays solo guitar 1 plays this, Heavy palm mute.
E|------------------------------------------------------|
B|------------------------------------------------------|
G|--------------3-3-3-3-3-3-----------------------------|
D|-0-0-0-0-0-0--3-3-3-3-3-3--3-3-3-3-3-3---3---3--------|
A|-0-0-0-0-0-0--1-1-1-1-1-1--3-3-3-3-3-3---3---3--------|
D|-0-0-0-0-0-0---------------3-3-3-3-3-3---3---3--------|

 When he starts screaming play this, still heavy palm mute
E|-----------------------------------------------|
B|-----------------------------------------------|
G|-----------------------------------------------|
D|-0-0-0-0-0-0---0----0-0-0-0-0-0----0-----------|
A|-0-0 0-0-0-0---0----0-0-0-0-0-0----0-----------|
D|-0-0-0-0-0-0---0----0-0-0-0-0-0----0-----------|


I'm pretty sure all of it's right except the chorus. Any questions or comments just E-mail me.
Comments