Sum 41 - Thanks For Nothing Chords & Tabs

 

Thanks For Nothing Chords & Tabs

Sum 41 Chords & Tabs

Version: 4 Type: Tab 0 ratings
1 star 2 stars 3 stars 4 stars 5 stars
comments

Thanks For Nothing Tab

   
Artist: Sum 41
Song: Thanks for Nothing (Full CD version, not demo / preview)
Instrument: Electric Guitar (Standard tuning)

Tabbed by TJF (TJF@TJFweb.com), December 14 2002

*** For heaps of JRock / JPop tabs, visit TJFweb.com

Notes: Quite a few people tabbed this song off a low quality demo
that they may have found on the Sum 41 website, and as a result,
tabbed the song incorrectly making it sound quite out of tune compared
to the CD version. This is a tab I created from the CD version which
I'm quite certain is 100% correct, however please email me if you
have any corrections.

I also haven't tabbed the exact strumming pattern of the song as
it is very easy to work out if you listen closely. Try to be punk
and play all downstrokes on the chords :D

pm means palm mute all the chords with . underneath

To properly play this live you need 2 guitars.
You don't really need to follow the Guitar 1 / 2 assignments below either,
it's just as a guide.

EDITED: Added a subtle change to the chorus and lowered the intro.
I'm certain it's about 99% correct now.

Guitar 1 - Intro
E|---------------------------------|
B|---------------------------------|
D|-7-7-3-3-----5-5--7-7-3-3-----5~-|
G|-7-7-3-3-3-3-5-5--7-7-3-3-3-3-5~-|
A|-5-5-1-1-3-3-3-3--5-5-1-1-3-3-3~-|
E|---------1-1--------------1-1----|

THEN

Guitar 1 - Intro Part 2
E|----------------------------------------|
B|----------------------------------------|
G|----------------------------------------|
D|-0-2-3-3------2-3-3----2-3-3--5-5-3-2---|
A|----------1-1-------------------------3-|
E|---------------------1------------------| x2

Guitar 2 - Intro Part 2 (Play chords in background)
E|-----------------|
B|-----------------|
D|-7-7-3-3-----5-5-|
G|-7-7-3-3-3-3-5-5-|
A|-5-5-1-1-3-3-3-3-|
E|---------1-1-----|

THEN

Guitars 1 & 2 - Verse
E|-------------------|
B|-------------------|
D|-7--3-3-----5-5555-|
G|-7--3-3--3--5-5555-|
A|-5--1-1--3--3-3333-|
E|---------1---------| x2
pm              ....

THEN
[ Tab from: http://www.guitartabs.cc/tabs/s/sum_41/thanks_for_nothing_tab_ver_4.html ]
Guitars 1 & 2 - Lead up to Chorus
E|-----------------|
B|-----------------|
D|-7-7-3-3-----5-5-|
G|-7-7-3-3-3-3-5-5-|
A|-5-5-1-1-3-3-3-3-|
E|---------1-1-----| x2 (but on second time let last chord lead into chorus)

THEN

Guitars 1 & 2 - Chorus
E|---------------------------------|
B|---------------------------------|
D|-7-7-7-7-3-3-3-3---------5-5-3-5-|
G|-7-7-7-7-3-3-3-3-3-3-3-3-5-5-3-5-|
A|-5-5-5-5-1-1-1-1-3-3-3-3-3-3-1-3-|
E|-----------------1-1-1-1---------|

THEN REPEAT ALL OF ABOVE THEN:

Guitar 1 - Bridge Part 1
E|-------------|
B|-------------|
D|-7--10-5-----|
G|-7--10-5-5-3-|
A|-5---8-3-5-3-|
E|---------3-1-|
(Or you may play single notes instead of chords)

THEN

Guitar 1 - Bridge Part 2
E|-----------------------------|
B|-----------------------------|
G|-----------------------------|
D|-3p2-4p2-5p3-1h3-2p0-3p2-5-5-|
A|-----------------------------|
E|-----------------------------| x4

Guitar 2 - Bridge Part 2 (Play in background, fast up/down palm mutes)
*** Repeat as necessary and release palm mute as necessary (listen to CD)
E|-----------------|
B|-----------------|
D|-----------------|
G|-2-2-2-2-3-3-3-3-|
A|-2-2-2-2-3-3-3-3-|
E|-0-0-0-0-1-1-1-1-|
pm . . . . . . . . 

THEN

Guitars 1 & 2 - Chorus
E|---------------------------------|
B|---------------------------------|
D|-7-7-7-7-3-3-3-3---------5-5-3-5-|
G|-7-7-7-7-3-3-3-3-3-3-3-3-5-5-3-5-|
A|-5-5-5-5-1-1-1-1-3-3-3-3-3-3-1-3-|
E|-----------------1-1-1-1---------|

THEN FINISH WITH INTRO

Guitar 1 - Intro Part 2
E|----------------------------------------|
B|----------------------------------------|
G|----------------------------------------|
D|-0-2-3-3------2-3-3----2-3-3--5-5-3-2---|
A|----------1-1-------------------------3-|
E|---------------------1------------------|

Guitar 2 - Intro Part 2 (Play chords in background)
E|-----------------|
B|-----------------|
D|-7-7-3-3-----5-5-|
G|-7-7-3-3-3-3-5-5-|
A|-5-5-1-1-3-3-3-3-|
E|---------1-1-----|


Any questions / corrections please visit the forums at TJFweb.com or
email TJF@TJFweb.com
Comments