Sum 41 - Thanks For Nothing Chords & Tabs

 

Thanks For Nothing Chords & Tabs

Sum 41 Chords & Tabs

Version: 3 Type: Tab 1 rating
1 star 2 stars 3 stars 4 stars 5 stars
comments

Thanks For Nothing Tab

Tabbed By:coolguitarplaya2
Band: Sum 41
Song: Thanks for nothing
Album: Does this Look Infected? (Out on Nov. 26)

INTRO - play this 2X lightly...

e|--------------------------------------------------------------------------|
B|--------------------------------------------------------------------------|
G|--8-8-8-8-8-8-8-8---4-4-4-4-4-4-4-4---------------------6-6-6-6-6-6-6-6---|
D|--8-8-8-8-8-8-8-8---4-4-4-4-4-4-4-4---4-4-4-4-4-4-4-4---6-6-6-6-6-6-6-6---|
A|--6-6-6-6-6-6-6-6---2-2-2-2-2-2-2-2---4-4-4-4-4-4-4-4---4-4-4-4-4-4-4-4---|
E|--------------------------------------2-2-2-2-2-2-2-2---------------------|


e|--------------------------------------------------------------------------|
B|--------------------------------------------------------------------------|
G|--8-8-8-8-8-8-8-8---4-4-4-4-4-4-4-4---------------------6-:---------------|
D|--8-8-8-8-8-8-8-8---4-4-4-4-4-4-4-4---4-4-4-4-4-4-4-4---6-:---------------|
A|--6-6-6-6-6-6-6-6---2-2-2-2-2-2-2-2---4-4-4-4-4-4-4-4---4-:---------------|
E|--------------------------------------2-2-2-2-2-2-2-2---------------------|

guitar 1 - 2X

e|--------------------------------------------------------------------------|
B|--------------------------------------------------------------------------|
G|--8-8-8-8-8-8-8-8---4-4-4-4-4-4-4-4---------------------6-6-6-6-6-6-6-6---|
D|--8-8-8-8-8-8-8-8---4-4-4-4-4-4-4-4---4-4-4-4-4-4-4-4---6-6-6-6-6-6-6-6---|
A|--6-6-6-6-6-6-6-6---2-2-2-2-2-2-2-2---4-4-4-4-4-4-4-4---4-4-4-4-4-4-4-4---|
E|--------------------------------------2-2-2-2-2-2-2-2---------------------|

guitar 2 - 2X

e|--------------------------------------------------------------------------|
B|--------------------------------------------------------------------------|
G|--------------------------------------------------------------------------|
D|-----1-----3-4--4------------3-4--4-------------3-4--4------6--6-4--3-----|
A|-----------------------2-2--------------------------------------------4---|
E|------------------------------------------2-2-----------------------------|


VERSE - 2X

e|--------------------------------------------------------------------------|
B|--------------------------------------------------------------------------|
G|--8x----------------4x---4x--------------------------6x--6-x-x-6-x-x-|
D|--8x----------------4x---4x--------4x----------------6x--6-x-x-6-x-x-|
A|--6x----------------2x---2x--------4x----------------4x--4-x-x-4-x-x-|
E|-----------------------------------2x---------------------------------|
														

e|--------------------------------------------------------------------------|
B|--------------------------------------------------------------------------|
G|--8-8-8-8-8-8-8-8---4-4-4-4-4-4-4-4---------------------6-6-6-6-6-6-6-6---|
D|--8-8-8-8-8-8-8-8---4-4-4-4-4-4-4-4---4-4-4-4-4-4-4-4---6-6-6-6-6-6-6-6---|
A|--6-6-6-6-6-6-6-6---2-2-2-2-2-2-2-2---4-4-4-4-4-4-4-4---4-4-4-4-4-4-4-4---|
E|--------------------------------------2-2-2-2-2-2-2-2---------------------|
[ Tab from: http://www.guitartabs.cc/tabs/s/sum_41/thanks_for_nothing_tab_ver_3.html ]
e|--------------------------------------------------------------------------|
B|--------------------------------------------------------------------------|
G|--8-8-8-8-8-8-8-8---4-4-4-4-4-4-4-4---------------------6-6-6-6-6-6-6-6---|
D|--8-8-8-8-8-8-8-8---4-4-4-4-4-4-4-4---4-4-4-4-4-4-4-4---6-6-6-6-6-6-6-6---|
A|--6-6-6-6-6-6-6-6---2-2-2-2-2-2-2-2---4-4-4-4-4-4-4-4---4-4-4-4-4-4-4-4---|
E|--------------------------------------2-2-2-2-2-2-2-2---------------------|


CHORUS - 2X

e|--------------------------------------------------------------------------|
B|--------------------------------------------------------------------------|
G|--------------------4-4-4-4-4-4-4-4-------------------6-6-6-6-6-6-6-6-x-x-|
D|--2-2-2-2-2-2-2-2---4-4-4-4-4-4-4-4---4-4-4-4-4-4-4---6-6-6-6-6-6-6-6-x-x-|
A|--2-2-2-2-2-2-2-2---2-2-2-2-2-2-2-2---4-4-4-4-4-4-4---4-4-4-4-4-4-4-4-x-x-|
E|--0-0-0-0-0-0-0-0---------------------2-2-2-2-2-2-2-----------------------|



BRIDGE - 4X

guitar 1 - 

e|--------------------------------------------------------------------------|
B|--------------------------------------------------------------------------|
G|--8-8-8-8-8-8-8-8---4-4-4-4-4-4-4-4---------------------6-6-6:---4-4-4:---|
D|--8-8-8-8-8-8-8-8---4-4-4-4-4-4-4-4---4-4-4-4-4-4-4-4---6-6-6:---4-4-4:---|
A|--6-6-6-6-6-6-6-6---2-2-2-2-2-2-2-2---4-4-4-4-4-4-4-4---4-4-4:---2-2-2:---|
E|--------------------------------------2-2-2-2-2-2-2-2---------------------|

guitar 2 

e|--------------------------------------------------------------------------|
B|--------------------------------------------------------------------------|
G|--------------------------------------------------------------------------|
D|-----1-----3-4--4------------3-4--4-------------3-4--4------6--6-4--3-----|
A|-----------------------2-2--------------------------------------------4---|
E|------------------------------------------2-2-----------------------------|

CHORUS

e|--------------------------------------------------------------------------|
B|--------------------------------------------------------------------------|
G|--------------------4-4-4-4-4-4-4-4-------------------6-6-6-6-6-6-6-6-x-x-|
D|--2-2-2-2-2-2-2-2---4-4-4-4-4-4-4-4---4-4-4-4-4-4-4---6-6-6-6-6-6-6-6-x-x-|
A|--2-2-2-2-2-2-2-2---2-2-2-2-2-2-2-2---4-4-4-4-4-4-4---4-4-4-4-4-4-4-4-x-x-|
E|--0-0-0-0-0-0-0-0---------------------2-2-2-2-2-2-2-----------------------|

guitar 1 - 2X

e|--------------------------------------------------------------------------|
B|--------------------------------------------------------------------------|
G|--8-8-8-8-8-8-8-8---4-4-4-4-4-4-4-4---------------------6-6-6-6-6-6-6-6---|
D|--8-8-8-8-8-8-8-8---4-4-4-4-4-4-4-4---4-4-4-4-4-4-4-4---6-6-6-6-6-6-6-6---|
A|--6-6-6-6-6-6-6-6---2-2-2-2-2-2-2-2---4-4-4-4-4-4-4-4---4-4-4-4-4-4-4-4---|
E|--------------------------------------2-2-2-2-2-2-2-2---------------------|

guitar 2 - 2X

e|--------------------------------------------------------------------------|
B|--------------------------------------------------------------------------|
G|--------------------------------------------------------------------------|
D|-----1-----3-4--4------------3-4--4-------------3-4--4------6--6-4--3-----|
A|-----------------------2-2--------------------------------------------4---|
E|------------------------------------------2-2-----------------------------|

Well, another good tab somewhat by me. I owe credit to some other French guy. If
you've seen my hell song tab, you'll know that I'm stealing from the French dudes. 
Yes, I can tab on my own, but copy and paste with alterations makes tabbing easier.
sorry and thanx to the French guys who did the work on these tabs.
Comments