Sum 41 - Thanks For Nothing Chords & Tabs

 

Thanks For Nothing Chords & Tabs

Sum 41 Chords & Tabs

Version: 2 Type: Tab 0 ratings
1 star 2 stars 3 stars 4 stars 5 stars
comments

Thanks For Nothing Tab

                      

                         SUM 41-THANKS FOR NOTHING


This Song is an awesome song... and it goes like this (strumming
patterns arent completly correct but youll get it)

         INTRO (CLEAN)
e---xx---xx---xx---xx
b---xx---xx---xx---xx
g---77---33---xx---55
d---77---33---33---55    2x
a---55---11---33---33
e---xx---xx---11---xx


GUITAR 1 DIST.   (DERYCK)
e---xxxx---xxxx----xxxx----xxxx
b---xxxx---xxxx----xxxx----xxxx
g---7777---3333----xxxx----5555
d---7777---3333----1111----5555  2x
a---5555---1111----1111----3333
e---xxxx---xxxx----3333----xxxx



GUITAR 2 DIST. (DAVE)
e----------------------------------------
b----------------------------------------
g----------------------------------------
d---0-2-3-2----2-2-3-2---2-3-2-5-5-3-2---  2x
a-----------1----------3---------------3-
e----------------------------------------

[ Tab from: http://www.guitartabs.cc/tabs/s/sum_41/thanks_for_nothing_tab_ver_2.html ]
VERSE (i'll never take part...)
e----x---xx-xx---x---xx-xx
b----x---xx-xx---x---xx-xx
g----7---33-33---x---55-55
d----7---33-33---3---55-55  2x
a----5---11-11---3---33-33
e----x---xx-xx---1---xx-xx

 (so jaded, frustrated...)
e----xxxxxx---xxxxxx---xxxxxx---xxxxxx
b----xxxxxx---xxxxxx---xxxxxx---xxxxxx
g----777777---333333---xxxxxx---555555
d----777777---333333---333333---555555
a----555555---111111---333333---333333
e----xxxxxx---xxxxxx---111111---xxxxxx



CHORUS
e----xxxxx---xxxxx---xxxxx---xxxxx
b----xxxxx---xxxxx---xxxxx---xxxxx
g----77777---33333---xxxxx---55555
d----77777---33333---33333---55555
a----55555---11111---33333---33333
e----xxxxx---xxxxx---11111---xxxxx



BRIDGE (dont think you can ignore us)
     pm....      pm....      pm....      pm..  pm..
e------------x-----------x-----------x-------x-----x-
b------------x-----------x-----------x-------x-----x-
g------------7-----------3-----------x-------5-----5-
d------------7-----------3-----------3-------5-----5-
a----5-5-5-5-5---1-1-1-1-1-----------3---3-3-3-3-3-3-
e------------x-----------x---1-1-1-1-1-------x-----x-

INTRO
VERSE
CHORUS
VERSE
BRIDGE
CHORUS
Comments