Sum 41 - Thanks For Nothing Chords & Tabs

 

Thanks For Nothing Chords & Tabs

Sum 41 Chords & Tabs

Version: 2 Type: Bass Tab 0 ratings
1 star 2 stars 3 stars 4 stars 5 stars
comments

Thanks For Nothing Bass Tab

Intro (after simple guitar chords):
---------------------------------------------------------
---------------------------------------------------------
---55555555--11111111---------------33333333-------------
----------------------------11111111--------------------- x2

Verse ("I'll never take part in the..."):
---------------------------------------------------------
---------------------------------------------------------
---55------11-11-------3-3333---55------11-11------3-333-
--------------------11-----------------------------11----

Bridge ("So jaded frustrated it's all so..."):
------------------------------------------------------
------------------------------------------------------
---55555555--1111111----------------33333333----------
---------------------------11111111------------------- x2

Chorus ("I've heard this all before..."):
------------------------------------------------------
------------------------------------------------------
---5-555555--1-111111--8-888888--3-333333-------------
------------------------------------------------------ x2
[ Tab from: http://www.guitartabs.cc/tabs/s/sum_41/thanks_for_nothing_btab_ver_2.html ]
Intro x2
verse x2
bridge x2
chorus x2

Play VERY fast:
--------------------------------------------------------------
--------------------------------------------------------------
--55555555555555--111111111111-------------------33-5--33-5---
----------------------------------------111111111111----------

--------------------------------------------------------------
--------------------------------------------------------------
--55555555555555--111111111111-------------------333-444------
----------------------------------------111111111111----------

--------------------------------------------------------------
--------------------------------------------------------------
--55555555555555--55555555--88888888888--33-5--33-5-----------
--------------------------------------------------------------

--------------------------------------------------------------
--------------------------------------------------------------
--55555555555555--111111111111-------------------333-444------
----------------------------------------111111111111----------

chorus x2

intro x4
Comments