Sum 41 - Summer Chords & Tabs

 

Summer Chords & Tabs

Sum 41 Chords & Tabs

Version: 6 Type: Tab 0 ratings
1 star 2 stars 3 stars 4 stars 5 stars
comments

Summer Tab

   
------------------------------------------------------------
                      Summer – Sum 41                       
------------------------------------------------------------

By: xtreme_ryguy

I tried to put the rhythm in as best as I could but it may
not be perfect so listen to the song for the correct one.

p=pull off
x=palm mute

Intro
e|--------------------------------|
B|-10-10--10--8-8--8--7-7--7-p8-7-|
G|--7--7---7--7-7--7--7-7--7--7-7-| x6
D|--------------------------------|
A|--------------------------------|
E|--------------------------------|

Fill 1:
e|--------------------------------------------------------
B|--------------------------------------------------------
G|-7--x-9-9--x-11-11--11-12-11--—7--x-9-9--x-11-11--11-12-
D|-x--x-x-x--x--x--x---x--x—-x---x--x-9-9--x--x--x---x--x-
A|-5--x-7-7--x--9--9---9-10--9---5--x-7-7--x--9--9---9-10-
E|--------------------------------------------------------

e----------------------------------------------------------
B----------------------------------------------------------
G-14---7--x-9-9--x-11-11--11-12-11---7--x-9-9--x-11-11--11-
D--x---x--x-x-x--x--x--x---x--x--x---x--x-x-x--x--x--x---x-
A-12---5--x-7-7--x--9--9---9-10--9---5--x-7-7--x--9--9---9-
E----------------------------------------------------------

e--------|
B--------|
G-9--9-9-| x1
D-x--x-x-|
A-7--7-7-|
E--------|

Verse: Strum each chord about 8 times.
e|------------|
B|------------|
G|-7--4-------| x2
D|-7--4--2--5-|
A|-5--2--2--5-|
E|-------0--3-|


Fill 1 (x1)


Verse (x2)


Fill 2: Let each chord ring.
e|------|
B|------|
G|------| x1
D|-2--5-|
A|-2--5-|
E|-0--3-|
[ Tab from: http://www.guitartabs.cc/tabs/s/sum_41/summer_tab_ver_6.html ]
Fill 3: (May not sound exactly right because it’s played
over the chorus if you listen carefully.)
e|----------------------------------------------------|
B|----------------------------------------------------|
G|-7--7-7--7-6--7--7-7--7-6--7--7-7--7-7--7--7-7--7-7-| x1
D|-x--x-x--x-x--x--x-x--x-x--x--x-x--x-x--x--x-x--x-x-|
A|-5--5-5--5-4--5--5-5--5-4--5--5-5--5-5—-5--5-5--5-5-|
E|----------------------------------------------------|


Fill 2 (x1)


Pick Slide Down


Fill 4: 
e|-------------------------------------------------------
B|-------------------------------------------------------
G|-7--7-7--7-6--7--7-7--7-6--7--7-7--7-7--7—-7-7--7-7--7-
D|-x--x-x--x-x--x--x-x--x-x--x--x-x--x-x--x—-x-x--x-x--x-
A|-5--5-5--5-4--5--5-5--5-4--5--5-5--5-5--5—-5-5--5-5--5-
E|-------------------------------------------------------

e--------------------------------------------|
B--------------------------------------------|
G-7-7--7-7-----------------------------------| x1
D-x-x--x-x----5--5-5--5--5-5--5--5-5-5-5-5-5-|
A-5-5--5-5----5--5-5--5--5-5--5--5-5-5-5-5-5-|
E-------------3--3-3--3--3-3--3--3-3-3-3-3-3-|

Chorus: Strum each chord about 4 times.
e|------------|
B|------------|
G|-7--4-------| x4
D|-7--4--5--7-|
A|-5--2--5--7-|
E|-------3--5-|


Fill 1 (x2)


Verse: Strum each chord about 8 times, letting only the
first time ring and palm muting the rest. On the second
time through let the last chord ring.
e|------------|
B|------------|
G|-7--4-------| x2
D|-7--4--2--5-|
A|-5--2--2--5-|
E|-------0--3-|


Fill 3 (x2)


Chorus (x4)


End on:
e|---|
B|---|
G|-7-| x1
D|-7-|
A|-5-|
E|---|

If I am missing anything, email me at extremebiker1@hotmail.com.
============================================================
Comments