Sum 41 - Summer Chords & Tabs

 

Summer Chords & Tabs

Sum 41 Chords & Tabs

Version: 5 Type: Tab 0 ratings
1 star 2 stars 3 stars 4 stars 5 stars
comments

Summer Tab

   
Standard tuning.

Intro(part1)
e-------------------------------------------
b-------------------------------------------
g-14-14--14-12-12--12-11-11--11-11h12p11----
d-12-12--12-12-12--12-12-12--12-12-12-12----
a-------------------------------------------
e-------------------------------------------

Intro(part2)
e-------------------------------------------
b-------------------------------------------
g-7-xx-9-xx-11-xx-12-14--7-xx-9-xx-11-xx----
d-x-xx-x-xx--x-xx--x--x--x-xx-x-xx--x-xx----
a-5-xx-7-xx--9-xx-10-12--5-xx-7-xx--9-xx----
e-------------------------------------------

e-------------------------------------------
b-------------------------------------------
g-12-11--7-xx-9-xx-11-xx-12-14--7-xx-9-xx---
d--x--x--x-xx-x-xx--x-xx--x--x--x-xx-x-xx---
a-10--9--5-xx-7-xx--9-xx-10-12--5-xx-7-xx---
e-------------------------------------------

e-------------------------------------------
b-------------------------------------------
g-11-11-11-11--9----------------------------
d--x--x--x--x--x----------------------------
a--9--9--9--9--7----------------------------
e-------------------------------------------

Verse 1
e-------------------------------------------
b-------------------------------------------
g-7-7-7-7-7-7-7-7---------------------------
d-7-7-7-7-7-7-7-7-9-9-9-9-9-9-9-9-2-2-2-2---
a-5-5-5-5-5-5-5-5-9-9-9-9-9-9-9-9-2-2-2-2---
e-----------------7-7-7-7-7-7-7-7-0-0-0-0---

e-------------------------------------------
b-------------------------------------------
g-------------------------------------------
d-2-2-2-2-5-5-5-5-5-5-5-5-------------------
a-2-2-2-2-5-5-5-5-5-5-5-5-------------------
e-0-0-0-0-3-3-3-3-3-3-3-3-------------------
note:none of the first verse is muted.

Fill 1
e-------------------------------------------
b-------------------------------------------
g-------------------------------------------
d-2-2-2-2-2-2-2-2-5-5-5-5-5-5-5-5-----------
a-2-2-2-2-2-2-2-2-5-5-5-5-5-5-5-5-----------
e-0-0-0-0-0-0-0-0-3-3-3-3-3-3-3-3-----------
[ Tab from: http://www.guitartabs.cc/tabs/s/sum_41/summer_tab_ver_5.html ]
Fill 2
e----------------------------------------------------------
b----------------------------------------------------------
g-7-7--7---------------------------------------------------
d-7-7--7-9-----5-5-5-5-5-5-5-5-5-5-------------------------
a-5-5--5-9-----5-5-5-5-5-5-5-5-5-5-------------------------
e--------7-----3-3-3-3-3-3-3-3-3-3-------------------------

interlude                  Chorus
e-------------------------     e----------------
b-------------------------     b----------------
g-7-7--7------------------     g7-7-7-7-7-7-7-7-
d-7-7--7-9-9--9-5-5-5-5-5-     d7-7-7-7-7-7-7-7-
a-5-5--5-9-9--9-5-5-5-5-5-     a5-5-5-5-5-5-5-5-  
e--------7-7--7-3-3-3-3-3-     e----------------

e-------------------------------------------
b-------------------------------------------
g-4-4-4-4-4-4-4-4---------------------------
d-4-4-4-4-4-4-4-4-5-5-5-5-5-5-5-5-7-7-7-7-7-
a-2-2-2-2-2-2-2-2-5-5-5-5-5-5-5-5-7-7-7-7-7-
e-----------------3-3-3-3-3-3-3-3-5-5-5-5-5-

e--------------------
b--------------------
g--------------------
d-7-7-7--------------
a-7-7-7--------------
e-5-5-5--------------

verse 2
e-------------------------------------------
b-------------------------------------------
g-7-7-7-7-7-7-7-7-7-7-7---------------------
d-7-7-7-7-7-7-7-7-7-7-7-9-9-9-9-9-9-9-9-9-9-
a-5-5-5-5-5-5-5-5-5-5-5-9-9-9-9-9-9-9-9-9-9-
e-----------------------7-7-7-7-7-7-7-7-7-7-
   pm------------------  pm-----------------

e-----------------------------------------------
b-----------------------------------------------
g-----------------------------------------------
d-9-2-2-2-2-2-2-2-2-2-2-2-5-5-5-5-5-5-5-5-5-5-5-
a-9-2-2-2-2-2-2-2-2-2-2-2-5-5-5-5-5-5-5-5-5-5-5-
e-7-0-0-0-0-0-0-0-0-0-0-0-3-3-3-3-3-3-3-3-3-3-3-
---  pm------------------  pm-------------------

End
e-----------
b-----------
g-----------
d-5/--------
a-5/--------
e-7/--------

Intro (part1)x6
Intro (part2)x1
Verse 1 x2
Intro (part2)x1
Verse 1 x2
fill x1
Interlude x1
fill x1-pick scrape
Interlude x1
Fill 2 
Chorus x4
Intro (part2)x2
Verse 2 x2
Interlude x2 
Chorus x4 
End
Comments