Sum 41 - Summer Chords & Tabs

 

Summer Chords & Tabs

Sum 41 Chords & Tabs

Version: 4 Type: Tab 0 ratings
1 star 2 stars 3 stars 4 stars 5 stars
comments

Summer Tab

   
Artist: Sum 41
Track: Summer
Album: All Killer No Filler
Tabbed By Mark Brown E-mail markusbrownus2@hotmail.com

On friday the 15th I saw them live and this band are absolutly amazing!!
I heard them say something like this is the next song that they are going
to release!! which is cool, so I'll thought I'll tab it.  Hope it helps.


Intro
Guitar 1
e-----------------------------------------------|
B-----------------------------------------------|
G-14-14--14--12-12--12--11-11--11--14-12--------|
D-12-12--12--12-12--12--11-11--11--12-12--------|
A-----------------------------------------------|
E-----------------------------------------------|

Intro
Guitar 2 Enterfter guitar 1 has played the intro twice
e-------------------------|
B-------------------------|
G--7~---------------------|
D--7~--9~--5~---7~--------|
A--5~--9~--5~---7~--------|
E------7~--3~---5~--------|

Main Riff
Guitar 1
e------------------------------|
B------------------------------|
G--7-x-x-9-x-x-11-x--12--11----|
D--7-x-x-9-x-x-11-x--12--11----|
A--5-x-x-7-x-x--9-x--10---9----|
E------------------------------|


e-----------------------------|
B-----------------------------|
G--7-x-x-9-x-x-11-x--12--14---|
D--7-x-x-9-x-x-11-x--12--14---|
A--5-x-x-7-x-x--9-x--10--12---|
E-----------------------------|


e------------------------------|
B------------------------------|
G--7-x-x-9-x-x-11-x--12--11----|
D--7-x-x-9-x-x-11-x--12--11----|
A--5-x-x-7-x-x--9-x--10---9----|
E------------------------------|


e----------------------------|
B----------------------------|
G--7-x-x-9-x-x-11-11--9-9----|
D--7-x-x-9-x-x-11-11--9-9----|
A--5-x-x-7-x-x--9--9--7-7----|
E----------------------------|

Guitar 2 play with main riff as rhythm
e-----------------------------------------------------------------|
B-----------------------------------------------------------------|
G-7-7-7-7-7-7-7-7-------------------------------------------------|
D-7-7-7-7-7-7-7-7-9-9-9-9-9-9-9-9-2-2-2-2-2-2-2-2-5-5-5-5-5-5-5-5-|
A-5-5-5-5-5-5-5-5-9-9-9-9-9-9-9-9-2-2-2-2-2-2-2-2-5-5-5-5-5-5-5-5-|
E-----------------7-7-7-7-7-7-7-7-0-0-0-0-0-0-0-0-3-3-3-3-3-3-3-3-|


Verse
Both Guitars Play 2x
e-----------------------------------------------------------------|
B-----------------------------------------------------------------|
G-7-7-7-7-7-7-7-7-------------------------------------------------|
D-7-7-7-7-7-7-7-7-9-9-9-9-9-9-9-9-2-2-2-2-2-2-2-2-5-5-5-5-5-5-5-5-|
A-5-5-5-5-5-5-5-5-9-9-9-9-9-9-9-9-2-2-2-2-2-2-2-2-5-5-5-5-5-5-5-5-|
E-----------------7-7-7-7-7-7-7-7-0-0-0-0-0-0-0-0-3-3-3-3-3-3-3-3-|

Break
e------------|
B------------|
G-7~---------|
D-7~---5~----|
A-5~---5~----|
E------3~----|
[ Tab from: http://www.guitartabs.cc/tabs/s/sum_41/summer_tab_ver_4.html ]
Pre-Chorus
Both Guitars
e---------------------------|
B---------------------------|
G--7-7-7-7------------------|
D--7-7-7-7-9-9-9-9-5-5-5-5--|
A--5-5-5-5-9-9-9-9-5-5-5-5--|
E----------7-7-7-7-3-3-3-3--|

Break pleck slide
e------------|
B------------|
G-7~---------|
D-7~---5~----|
A-5~---5~----|
E------3~----|


Chorus
Both Guitars
e------------------------------------|
B------------------------------------|
G-7-7-7-7----------------------------|
D-7-7-7-7-9-9-9-9-5-5-5-5-7-7-7-7----|
A-5-5-5-5-9-9-9-9-5-5-5-5-7-7-7-7----|
E---------7-7-7-7-3-3-3-3-5-5-5-5----|

Main Riff
Guitar 1
e------------------------------|
B------------------------------|
G--7-x-x-9-x-x-11-x--12--11----|
D--7-x-x-9-x-x-11-x--12--11----|
A--5-x-x-7-x-x--9-x--10---9----|
E------------------------------|


e-----------------------------|
B-----------------------------|
G--7-x-x-9-x-x-11-x--12--14---|
D--7-x-x-9-x-x-11-x--12--14---|
A--5-x-x-7-x-x--9-x--10--12---|
E-----------------------------|


e------------------------------|
B------------------------------|
G--7-x-x-9-x-x-11-x--12--11----|
D--7-x-x-9-x-x-11-x--12--11----|
A--5-x-x-7-x-x--9-x--10---9----|
E------------------------------|


e----------------------------|
B----------------------------|
G--7-x-x-9-x-x-11-11--9-9----|
D--7-x-x-9-x-x-11-11--9-9----|
A--5-x-x-7-x-x--9--9--7-7----|
E----------------------------|

Guitar 2 during main riff
e-----------------------------------------------------------------|
B-----------------------------------------------------------------|
G-7-7-7-7-7-7-7-7-------------------------------------------------|
D-7-7-7-7-7-7-7-7-9-9-9-9-9-9-9-9-2-2-2-2-2-2-2-2-5-5-5-5-5-5-5-5-|
A-5-5-5-5-5-5-5-5-9-9-9-9-9-9-9-9-2-2-2-2-2-2-2-2-5-5-5-5-5-5-5-5-|
E-----------------7-7-7-7-7-7-7-7-0-0-0-0-0-0-0-0-3-3-3-3-3-3-3-3-|

Verse
Both Guitars
e-----------------------------------------------------------------|
B-----------------------------------------------------------------|
G-7-7-7-7-7-7-7-7-------------------------------------------------|
D-7-7-7-7-7-7-7-7-9-9-9-9-9-9-9-9-2-2-2-2-2-2-2-2-5-5-5-5-5-5-5-5-|
A-5-5-5-5-5-5-5-5-9-9-9-9-9-9-9-9-2-2-2-2-2-2-2-2-5-5-5-5-5-5-5-5-|
E-----------------7-7-7-7-7-7-7-7-0-0-0-0-0-0-0-0-3-3-3-3-3-3-3-3-|
p.m______________________________________________________________|

Pre-Chorus
Both Guitars
e---------------------------|
B---------------------------|
G--7-7-7-7------------------|
D--7-7-7-7-9-9-9-9-5-5-5-5--|
A--5-5-5-5-9-9-9-9-5-5-5-5--|
E----------7-7-7-7-3-3-3-3--|

e------------------------------------|
B------------------------------------|
G-7-7-7-7----------------------------|
D-7-7-7-7-9-9-9-9-5-5-5-5-7-7-7-7----|
A-5-5-5-5-9-9-9-9-5-5-5-5-7-7-7-7----|
E---------7-7-7-7-3-3-3-3-5-5-5-5----|

End On
Both Guitars
e--------|
B--------|
G-7~-----|
D-7~-----|
A-5~-----|
E--------|
Comments