Sum 41 - Still Waiting Chords & Tabs

 

Still Waiting Chords & Tabs

Sum 41 Chords & Tabs

Version: 6 Type: Tab 0 ratings
1 star 2 stars 3 stars 4 stars 5 stars
comments

Still Waiting Tab

Palm mute=*
Let ring=~
[ Tab from: http://www.guitartabs.cc/tabs/s/sum_41/still_waiting_tab_ver_6.html ]
e|--------------------------------------------------------------------
B|--------------------------------------------------------------------
G|--------------------------------------------------------------------
D|-9-9-9-9-9-9-9-9----------------------------------------------------
A|-7-7-7-7-7-7-7-7-9-9-9-9-9-9-9-9-7-7-7-7-7-7-7-7-9-9-9-9-9-9-9-9----
E|-----------------7-7-7-7-7-7-7-7-5-5-5-5-5-5-5-5-7-7-7-7-7-7-7-7----
   * * * * * * * * * * * * * * * * * * * * * * * * * * * * * * * *
e|--------------------------------------------------------------------
B|--------------------------------------------------------------------
G|--------------------------------------------------------------------
D|-9-9-9-9-9-9-9-9----------------------------------------------------
A|-7-7-7-7-7-7-7-7-9-9-9-9-9-9-9-9-7-7-7-7-7-7-7-7-9-9-9-9-9-9-9~~~~~-
E|-----------------7-7-7-7-7-7-7-7-5-5-5-5-5-5-5-5-7-7-7-7-7-7-7~~~~~-
   * * * * * * * * * * * * * * * * * * * * * * * * * * * * * * 
e|--------------------------------------------------------------------
B|--------------------------------------------------------------------
G|--------------------------------------------------------------------
D|--------------------------------------------------------------------
A|-10-9-10----10-9-10----10-9-10-12-10-9-10----Repeat 2X--------------
E|--------------------------------------------------------------------
Comments