Sum 41 - Still Waiting Chords & Tabs

 

Still Waiting Chords & Tabs

Sum 41 Chords & Tabs

Version: 4 Type: Tab 0 ratings
1 star 2 stars 3 stars 4 stars 5 stars
comments

Still Waiting Tab

Band: Sum 41
Song: Still Waiting
Album: Does this look infected 
Tabber: Eric



Standard Tuning

ITNRO
Guitar 1
|--------------------------------------------------------------------
|--------------------------------------------------------------------
|-9-9-9-9-9-9-9-9--5-5-5-5-5-5-5-5----------------------------------- 
|-9-9-9-9-9-9-9-9--5-5-5-5-5-5-5-5--5-5-5-5-5-5-5-5--9-9-9-9-9-9-9-9- 
|-7-7-7-7-7-7-7-7--3-3-3-3-3-3-3-3--5-5-5-5-5-5-5-5--9-9-9-9-9-9-9-9- 
|-----------------------------------3-3-3-3-3-3-3-3--7-7-7-7-7-7-7-7-
pm. . . . . . . .  . . . . . . . .  . . . . . . . .  . . . . . . . .

Guitar 1
|----------------------------------------------------------------------
|----------------------------------------------------------------------
|-9-9-9-9-9-9-9-9--5-5-5-5-5-5-5-5-------------------7-7-7-7-7-7-7-7-7- let last
|-9-9-9-9-9-9-9-9--5-5-5-5-5-5-5-5--5-5-5-5-5-5-5-5--7-7-7-7-7-7-7-7-7- note ring
|-7-7-7-7-7-7-7-7--3-3-3-3-3-3-3-3--5-5-5-5-5-5-5-5--5-5-5-5-5-5-5-5-5- 
|-----------------------------------3-3-3-3-3-3-3-3--------------------
pm. . . . . . . .  . . . . . . . .  . . . . . . . .  . . . . . . . .


BRIDGE
Guitar 1
|-------------------------------------------
|-------------------------------------------
|-12-11-12---12-11-12---12-11-12-14-12-11-7- X2
|--x--x--x----x--x--x----x--x--x--x--x--x-x-
|-10--9-10---10--9-10---10--9-10-12-10--9-5-
|-------------------------------------------

Guitar 2
|--------------------------------------------------------------------
|--------------------------------------------------------------------
|------------------5-5-5-5-5-5-5-5-------------------5-5-5-5-4-4-4-4- X2
|-2-2-2-2-2-2-2-2--5-5-5-5-5-5-5-5--2-2-2-2-2-2-2-2--5-5-5-5-4-4-4-4-
|-2-2-2-2-2-2-2-2--3-3-3-3-3-3-3-3--2-2-2-2-2-2-2-2--3-3-3-3-2-2-2-2-
|-0-0-0-0-0-0-0-0-------------------0-0-0-0-0-0-0-0------------------

VERSE 
Guitar 1 
|---------------------------------------------------------------- X4, but 4th time
|---------------------------------------------------------------- hit the last note
|------------------4/3\4--4/3\4--2/3-------------------4-4-4-4-4- many times into
|-2-2-2-2-2-2-2-2--x/x\x--x/x\x--x/x--2-2-2-2-2-2-2-2--4-4-4-4-4- chorus, and guitar 
|-2-2-2-2-2-2-2-2--2/1\2--2/1\2--0/1--2-2-2-2-2-2-2-2--2-2-2-2-2- 2 pick scrapes
|-0-0-0-0-0-0-0-0---------------------0-0-0-0-0-0-0-0------------ into the chrous
pm. . . . . . . .                     . . . . . . . .    .   .


CHORUS
Guitar 1&2
|--------------------------------------------------------------------
|--------------------------------------------------------------------
|-9-9-9-9-9-9-9-9--5-5-5-5-5-5-5-5----------------------------------- X2
|-9-9-9-9-9-9-9-9--5-5-5-5-5-5-5-5--5-5-5-5-5-5-5-5--9-9-9-9-9-9-9-9-
|-7-7-7-7-7-7-7-7--3-3-3-3-3-3-3-3--5-5-5-5-5-5-5-5--9-9-9-9-9-9-9-9-
|-----------------------------------3-3-3-3-3-3-3-3--7-7-7-7-7-7-7-7-
[ Tab from: http://www.guitartabs.cc/tabs/s/sum_41/still_waiting_tab_ver_4.html ]
(play bridge again)
(play verse again)
(play chorus again)

THING AFTER CHORUS
Guitar 1&2
|--------------------------------------------------------------------
|--------------------------------------------------------------------
|-9--9-9--9-9-9-9--5--5-5--5-5-5-5----------------------------------- X2
|-9--9-9--9-9-9-9--5--5-5--5-5-5-5--5--5-5--5-5-5-5--9--9-9--9-9-9-9-
|-7--7-7--7-7-7-7--3--3-3--3-3-3-3--5--5-5--5-5-5-5--9--9-9--9-9-9-9-
|-----------------------------------3--3-3--3-3-3-3--7--7-7--7-7-7-7-

then, Guitar 1&2
|------------------------------------------
|------------------------------------------
|-9-9-9-9-9-9-9-9-------------------------- X4
|-9-9-9-9-9-9-9-9--10-10-10-12-12-12-12-12-
|-7-7-7-7-7-7-7-7--10-10-10-12-12-12-12-12-
|-------------------8--8--8-10-10-10-10-10-


INTERLUDE
Guitar 1
|-------------------------------------------------------------------------------- 
|-------------------------------------------------------------------------------- 
|-9-9-9-9-9-9-9-9-9-9-9-9-9-9-9-9--12-12-12-12-12-12-12-12--11-11-11-11--7-7-7-7- X1
|-x-x-x-x-x-x-x-x-x-x-x-x-x-x-x-x---x--x--x--x--x--x--x--x---x--x--x--x--x-x-x-x-
|-7-7-7-7-7-7-7-7-7-7-7-7-7-7-7-7--10-10-10-10-10-10-10-10---9--9--9--9--5-5-5-5- 
|--------------------------------------------------------------------------------

Guitar 2 (plays in conjunction with guitar 1)
|---------------------------------------------------
|---------------------------------------------------
|-9-9-9---------5-5-5------------------------------- X1
|-9-9-9---------5-5-5----------5-5-5----------9-9-9-
|-7-7-7---------3-3-3----------5-5-5----------9-9-9-
|------------------------------3-3-3----------7-7-7-

THEN
Guitar 1
riff 1                   riff 2
|-------------          |-----------------
|-------------          |-----------------
|---4--------- X3, then |----------------- X1
|-5---5p4-2h4-          |-5-4-4-5-7-5-4-5-
|-------------          |-----------------
|-------------          |-----------------
play this riff order over 3 more times (total of 4 times), but the 4th time instead
of playing riff 2, play this chord many times into the chrous
|---
|---
|-4-
|-4-
|-2-
|---

Guitar 2 (plays in conjunction with the riff order on guitar 1)
|--------------------------------------------
|-------------------------------------------- X2 (make sure its only     )
|----------5-5-5-------------4-4-4-2-2-2-2-2-    (the first 2 times with )
|-2-2-2----5-5-5----5-5-5----4-4-4-2-2-2-2-2-    (guitar 1's riff order  )
|-2-2-2----3-3-3----5-5-5----2-2-2-0-0-0-0-0-    
|-0-0-0-------------3-3-3-------------------- also pick scrape into the chorus
pm                                   . .


(play chorus again twice)

END WITH
Guitar 1&2
|------------
|------------
|-9-9-9-9-9/-
|-9-9-9-9-9/-
|-7-7-7-7-7/-
|------------


That's it I think it's all right but it's good for only being out for a couple days. Email me at dabomb172@hotmail.com for questions!
Comments