Sum 41 - Still Waiting Chords & Tabs

 

Still Waiting Chords & Tabs

Sum 41 Chords & Tabs

Version: 8 Type: Bass Tab 0 ratings
1 star 2 stars 3 stars 4 stars 5 stars
comments

Still Waiting Bass Tab

   
Still Waiting by sum 41
Bass tab by adam nopants

hey everybody, same as last time, I was listening to the bass part 

closely and I realised it actually went down lower than most people 

thought at one point, and the verses were different too. So I wrote 

this in hopes that you'll play this song most accurately! I'm sure 

it's 100% correct, but I could be wrong, so if I am, smash my guitar.

IMPORTANT: this tab is in Drop D. If you don't want to retune to drop 

D, just play the note and octave higher (fret 5 on the A string), and 

play everything on the E string 2 frets down. 

h -hammer on
p -pull off
/ -slide up
\slide down

Guitar plays for intro, then everybody comes in

Intro part 2 (0:11)

G|-------------------------------------------|
D|-------------------------------------------|- x2
A|-7\-----------33333333----------3333-22----|
D|-----22222222----------22222222---------55-|


Verse (0:23) "Drop dead..."
G|--------------------------------------------------------------|
D|--------------------------------------------------------------|
A|--------------------------------------------------------------|
D|-22222222-8p7-8p7-8h9-22222222-5-5-7/2--22222222-8p7-8p7-8h9--|

G|--------------------------|
D|--------------------------|
A|----------2222-5555\------|
D|-55555555-----------------|

G|--------------------------------------------------------------|
D|--------------------------------------------------------------|
A|--------------------------------------------------------------|
D|-22222222-8p7-8p7-8h9-22222222-5-5-7/2--22222222-8p7-8p7-8h9--|


Note:14's, not 1's and 4's
G|---------------------------------------------|
D|---------------------------------------------|
A|----------22222222/14-14-14-14-14-14-14-14\--|
D|-55555555------------------------------------|

Chorus! (0:43) "So am I..."
G|----------------------------------------------|
D|----------------------------------------------|
A|----------33333333----------22222222----------|
D|-22222222----------55555555-------------------|

G|----------------------------------------------|
D|----------------------------------------------|
A|-77777777-33333333----------55555555----------|
D|-------------------55555555-------------------|

Post Chorus (0:54)

G|------------------------------|
D|------------------------------|
A|-----333-----3333-22----------|
D|-222-----222---------55\------|

PLay Verse and Chorus again, then we have the bridge (1:30)
[ Tab from: http://www.guitartabs.cc/tabs/s/sum_41/still_waiting_btab_ver_8.html ]
Bridge
G|----------------------------------------------|
D|----------------------------------------------|
A|----------33333333----------2222-5555---------|
D|-22222222----------22222222-------------------|

G|----------------------------------------------|
D|----------------------------------------------|
A|----------33333333----------22222222----------|
D|-22222222----------22222222-------------------|

"I feel so alone.." (1:40)
G|---------------------------------------|
D|---------------------------------------|
A|-77777777-3333-5555-77777777-3333-5555-|
D|---------------------------------------|

G|-----------------------------------------------------|
D|-----------------------------------------------------|
A|-77777777-3333-5555-77777777/10-10-10-10-------------|
D|-----------------------------------------12-12-12-12-|

G|------------------------------|
D|------------------------------|
A|-----333-----222--------------|
D|-222-----555------------------|

                              right around here is the new part 
G|----------------------------|-----------|
D|----------------------------|-----------|
A|----------33333333----------2222-5------|
D|-22222222----------55555555--------0-0--|

G|----------------------------------------------|
D|----------------------------------------------|
A|----------33333333----------2222/14-14-14-14\-|
D|-22222222----------55555555-------------------|

G|--------------------------------------|
D|--------------------------------------|
A|----------33333333----------22222222--|
D|-22222222----------55555555-----------|

G|--------------------------------------------------------------|
D|--------------------------------------------------------------|
A|----------33333333----------22222222/14-14-14-14-14-14-14-14\-|
D|-22222222----------55555555-----------------------------------|

Last 2 Choruses, different from the others (2:16)

G|--------------------------------------|
D|--------------------------------------|
A|-77777777-33333333----------22222222--|
D|-------------------55555555-----------|

G|-------------------------------------|
D|-------------------------------------|
A|----------33333333----------22222222-|
D|-22222222----------55555555----------|

G|-------------------------------------|
D|-------------------------------------|
A|-77777777-33333333----------55555555-|
D|-------------------55555555----------|

G|---------------------------------4444-99999999-9-|
D|-------------------55555555-4444-----------------|
A|-77777777-33333333-------------------------------|
D|-------------------------------------------------|

There is is! Trust me on this one, I spent hours listening to it 

before I wrote this, making sure it was completely perfect. Please 

rate 5!
Comments