Sum 41 - Still Waiting Chords & Tabs

 

Still Waiting Chords & Tabs

Sum 41 Chords & Tabs

Version: 7 Type: Bass Tab 0 ratings
1 star 2 stars 3 stars 4 stars 5 stars
comments

Still Waiting Bass Tab

   
-------------------------------------------------------------------------------
			     Still Waiting - Sum 41
-------------------------------------------------------------------------------

Artist: Sum 41
Song: Still Waiting
Off the Album: Does this look infected?
Tabbed By : Zero is great man
Tuning: EADG (Standard E)

Guitar: Intro 
"So am I, Still waiting, for this world to stop hating?"
"Can't find a, good reason, can't find hope to belive in..."

[Then]

Fill:
G|--------------------------------|
D|--------------------------------|
A|--------3-3-3---------3-3-3-3-3-|
E|-0-0-0---------0-0-0------------|

Verse:
"Drop dead, a bullet through my head! Your words are like a gun in hand"
"We can't change, the state of the nation..."
G|----------------------------------------------------|
D|----------------------------------------------------|
A|----------------------------------------------------|
E|-0-0--6-5-6-5-6-5--0-0--3-3-3-3-3--0-0--6-5-6-5-6-5-|

"We Just need some motivation"
G|--------------------------|
D|--------------------------|
A|--------------------------|
E|-3-3-3-3-3-3--5-5-5-5-5-5-|

Pre - Chorus: 
"So tell me, what would you say?"
G|------------------|
D|------------------|
A|------------------|
E|-0-0--6-5-6-5-6-5-|

"I'd say it's time, to wait!"
"I don't know what to feel!"
G|--------------|
D|--------------|
A|---------12\0-|
E|-3-3-3-3------|
[ Tab from: http://www.guitartabs.cc/tabs/s/sum_41/still_waiting_btab_ver_7.html ]
Chorus:
"So am I still waiting for this world to stop hating?"
"Can't find a good reason, can't find hope to belive in"
G|------------------------------------------------------------------------|
D|-2-2-2-2--------------------0-0-0-0--2-2-2-2--------------------0-0-0-0-|
A|----------3-3-3-3-----------------------------3-3-3-3-------------------|
E|-------------------3-3-3-3-----------------------------3-3-3-3----------|

Bridge:
"This, can't last forever, time won't make things better..."
G|------------------------------------|
D|------------------------------------|(x2)
A|----------3-3-3-3-----------5-5-5-5-|
E|-0-0-0-0-----------3-3-3-3----------|

"I, Feel so alone, can't help myself," 
"And no one knows, So hit this, it's worthless to me!"
G|---------------------------------------------------------------------------|
D|-2-2-2-2-2-2-2-2-2-2-2-2-2-2-2-2-2-2-2-2-2-2-2-2-2-2-2-2-2-2-2-2-2-2-2-2-2-|
A|---------------------------------------------------------------------------|
E|---------------------------------------------------------------------------|

"What have We've done?, we're the ones that can't be won"
"This Can't be real..."
G|------------------------------------------------------|
D|------------------------------------------------------|
A|----------3-3-3-3-----------3-3-3-3-----------3-3-3-3-|
E|-0-0-0-0-----------0-0-0-0-----------0-0-0-0----------|


| /  slide up
| \  slide down
| h  hammer-on
| p  pull-off
| ~  vibrato
| +  harmonic
| x  Mute note

===============================================================================
Comments