Sum 41 - Still Waiting Chords & Tabs

 

Still Waiting Chords & Tabs

Sum 41 Chords & Tabs

Version: 4 Type: Bass Tab 1 rating
1 star 2 stars 3 stars 4 stars 5 stars
comments

Still Waiting Bass Tab

This song is so awesome and it's pretty easy too. Oh yeah, screw you to all
the people who think it sucks because "It's too hardcore" or "It's not poppy
enough". I like the fact that they have a newer hard rock sound.

This song starts out with just guitar and singing, then the bass comes in like this...
Intro:
G|----------------------------------------------------------------------------------------
D|----------------------------------------------------------------------------------------
A|-----------33333333----------3333-22-------------33333333----------3333-22--------------
E|---0000000----------00000000---------33-00000000----------00000000---------33-----------

Verse:
G|----------------------------------------------------------------------------------------
D|----------------------------------------------------------------------------------------
A|------------------------------------------------------------------22222222--------------
E|---00000000-*guitar*-00000000-*guitar*-00000000-*guitar*-33333333-----------------------

G|----------------------------------------------------------------------------------------
D|----------------------------------------------------------------------------------------
A|------------------------------------------------------------------2222222222222222------
E|---00000000-*guitar*-00000000-*guitar*-00000000-*guitar*-33333333-----------------------

Chorus:
G|----------------------------------------------------------------------------------------
D|---22222222----------------------------22222222-----------------------------------------
A|------------33333333----------22222222----------33333333----------22222222--------------
E|---------------------33333333----------------------------33333333-----------------------

Break:
G|----------------------------------------------------------------------------------------
D|----------------------------------------------------------------------------------------
A|-------333------333-2-------------------------------------------------------------------
E|---000------000-------3-----------------------------------------------------------------

Verse:
G|----------------------------------------------------------------------------------------
D|----------------------------------------------------------------------------------------
A|------------------------------------------------------------------22222222--------------
E|---00000000-*guitar*-00000000-*guitar*-00000000-*guitar*-33333333-----------------------
[ Tab from: http://www.guitartabs.cc/tabs/s/sum_41/still_waiting_btab_ver_4.html ]
G|----------------------------------------------------------------------------------------
D|----------------------------------------------------------------------------------------
A|------------------------------------------------------------------2222222222222222------
E|---00000000-*guitar*-00000000-*guitar*-00000000-*guitar*-33333333-----------------------

Chorus:
G|-----------------------------------------------------------------------4444-------------
D|---22222222----------------------------22222222----------55555555-4444------------------
A|------------33333333----------22222222----------33333333--------------------------------
E|---------------------33333333-----------------------------------------------------------

Bridge:
G|----------------------------------------------------------------------------------------
D|----------------------------------------------------------------------------------------
A|------------33333333----------22222222----------33333333----------22222222--------------
E|---00000000----------33333333----------00000000----------33333333-----------------------

G|----------------------------------------------------------------------------------------
D|------------------------------------------------------------22222222-5555---------------
A|------------3333-5555----------3333-5555----------3333-5555---------------5555----------
E|---00000000-----------00000000-----------00000000---------------------------------------

G|---------------------------------------------------------------------------------------
D|---------------------------------------------------------------------------------------
A|-------333-----222----------33333333----------2222---2----------33333333-(x8this note->2
E|---000-----333-----00000000----------33333333------3---00000000----------33333333-------

"What have we done?..."
G|----------------------------------------------------------------------------------------
D|----------------------------------------------------------------------------------------
A|------------33333333----------22222222----------33333333----------2222222222222222------
E|---00000000----------33333333----------00000000----------33333333-----------------------

Chorus:
G|----------------------------------------------------------------------------------------
D|---22222222----------------------------22222222-----------------------------------------
A|------------33333333----------22222222----------33333333----------22222222--------------
E|---------------------33333333----------------------------33333333-----------------------

G|---------------------------------------------------------------------4444-999999999-----
D|---22222222----------------------------2222222---------55555555-4444--------------------
A|------------33333333----------22222222---------3333333----------------------------------
E|---------------------33333333-----------------------------------------------------------
Comments