Sum 41 - Spiderman Chords & Tabs

 

Spiderman Chords & Tabs

Sum 41 Chords & Tabs

Version: 1 Type: Tab 1 rating
1 star 2 stars 3 stars 4 stars 5 stars
comments

Spiderman Tab

I am 100% that this is perfect it's top class

If there is any problmes e-mail me on addyman2000@yahoo.com





------------------------------------------------9--------------
--------------------------------9------10-------------10---9
------------11----9----11-----------------------------------                 REPETE
--------------------------------------------------------------
---------------------------------------------------------------
--------------------------------------------------------------

[ Tab from: http://www.guitartabs.cc/tabs/s/sum_41/spiderman_tab.html ]
-----------13-----13------12-----12------11------11---------10--------10
-----------12-----12------11-----11------10------10---------9----------9
------------------------------------------------------------------------------
-------------------------------------------------------------------------------
------------------------------------------------------------------------------
------------------------------------------------------------------------------




Verse

-----------------------------------------------------------------------------------------
------------------------------------------------------------------------------------------
------------------------------------------------------------------------------------------
-------------------------------------------------------------------------------------------           REPETE
-----------------------------------------------------------------2--3--2--0--2--3--2--0
-----------2---2--------2---5---5--------5---7---7----5-------------------------------



Chorus

-----------2----2----2-----5------7---7---7---8
-----------4----4----4-----7------9---9---9---10
-----------4----4----4-----7------9---9---9---10
----------------------------------------------------
----------------------------------------------------
----------------------------------------------------



Comments