Sum 41 - Some Say Chords & Tabs

 

Some Say Chords & Tabs

Sum 41 Chords & Tabs

Version: 2 Type: Tab 0 ratings
1 star 2 stars 3 stars 4 stars 5 stars
comments

Some Say Tab

There are already some good tabs for the rest of this song.
Here is the solo.



Part 1 (x2)

eb|-----------------------------------------------------------------|
Bb|-----------------------------------------------------------------|
Gb|-----------------------------------------------------------------|
Db|-----/6-----3h4p3h4p3----1-1-1-1-3-3-3-3-4-4-4-4-3h4p3-1---------|
Ab|---4-------------------------------------------------------------|
Eb|-----------------------------------------------------------------|

Part 2 (x2)
[ Tab from: http://www.guitartabs.cc/tabs/s/sum_41/some_say_tab_ver_2.html ]
eb|-----------------------------------------------------------------|
Bb|-----------------------------------------------------------------|
Gb|-----------------------------------------------------------------|
Db|-------------3-3-3h4-3-3-3h4p3-----------------------------------|
Ab|-4-4-4-6-6-6-------------------6-6-6-6-4-4-4-4-6-6-6-6-3h4p3-1---|
Eb|-----------------------------------------------------------------|

End on

eb|------------------|
Bb|------------------|
Gb|------------------|
Db|-4-4-4h6p4--------|
Ab|------------------|
Eb|------------------|
Comments