Sum 41 - Scottie Doesnt Know Chords & Tabs

 

Scottie Doesnt Know Chords & Tabs

Sum 41 Chords & Tabs

Version: 1 Type: Tab 1 rating
1 star 2 stars 3 stars 4 stars 5 stars
comments

Scottie Doesnt Know Tab

----------------------------------------------------------
----------------------------------------------------------
----------------------------------------------------------
------55-44-55----55-44-55----55-44-55-77-55-44-55--------
--------------------------33------------------------------
---33---------55------------------------------------------

Vers [2x] Dist

----------------------------------------------------------
----------------------------------------------------------
----------------------------------------------------------
------55-44-55----55-44-55----55-44-55-77-55-44-55--------
---------------------------33-----------------------------
---33----------55-----------------------------------------

Chorus [1x] Dist

----------------------------------------------------------
----------------------------------------------------------
----------------------55555555-55555555-------------------
--55555555--77777777--55555555-55555555-------------------
--55555555--77777777--33333333-33333333-------------------
--33333333--55555555--------------------------------------

Chorus [1x] Dist

----------------------------------------------------------
----------------------------------------------------------
----------------------55555555----------------------------
--55555555--77777777--55555555--7777--5555----------------
--55555555--77777777--33333333--7777--5555----------------
--33333333--55555555------------5555--3333----------------

Vers [1x] Dist Palm Muted

----------------------------------------------------------
----------------------------------------------------------
----------------------55555555—-x-5-x-10------------------
--55555555--77777777--55555555—-x-5-x-10-8----------------
--55555555--77777777--33333333—-x-3-x-8--8----------------
--33333333--55555555---------------------6----------------

Vers [1x] Dist Palm Muted

----------------------------------------------------------
----------------------------------------------------------
----------------------55555555—---------------------------
--55555555--77777777--55555555—-------3333----------------
--55555555--77777777--33333333—-8888----------------------
--33333333--55555555--------------------------------------









Chorus [1x] Dist

----------------------------------------------------------
----------------------------------------------------------
----------------------55555555-55555555-------------------
--55555555--77777777--55555555-55555555-------------------
--55555555--77777777--33333333-33333333-------------------
--33333333--55555555--------------------------------------

Chorus [1x] Dist

----------------------------------------------------------
----------------------------------------------------------
----------------------55555555----------------------------
--55555555--77777777--55555555--7777--5555----------------
--55555555--77777777--33333333--7777--5555----------------
--33333333--55555555------------5555--3333----------------

Vers [3x] Dist Palm Muted

----------------------------------------------------------
----------------------------------------------------------
----------------------55555555—-x-5-x-10------------------
--55555555--77777777--55555555—-x-5-x-10-8----------------
--55555555--77777777--33333333—-x-3-x-8--8----------------
--33333333--55555555---------------------6----------------

Vers [1x] Dist Palm Muted
[ Tab from: http://www.guitartabs.cc/tabs/s/sum_41/scottie_doesnt_know_tab.html ]
----------------------------------------------------------
----------------------------------------------------------
----------------------55555555—---------------------------
--55555555--77777777--55555555—-------3333----------------
--55555555--77777777--33333333—-8888----------------------
--33333333--55555555--------------------------------------

Chorus [1x] Dist

----------------------------------------------------------
----------------------------------------------------------
----------------------55555555-55555555-------------------
--55555555--77777777--55555555-55555555-------------------
--55555555--77777777--33333333-33333333-------------------
--33333333--55555555--------------------------------------

Chorus [1x] Dist

----------------------------------------------------------
----------------------------------------------------------
----------------------55555555----------------------------
--55555555--77777777--55555555--7777--5555----------------
--55555555--77777777--33333333--7777--5555----------------
--33333333--55555555------------5555--3333----------------

Chorus [1x] Dist

----------------------------------------------------------
----------------------------------------------------------
----------------------55555555-55555555-------------------
--55555555--77777777--55555555-55555555-------------------
--55555555--77777777--33333333-33333333-------------------
--33333333--55555555--------------------------------------






Chorus [1x] Dist

----------------------------------------------------------
----------------------------------------------------------
----------------------55555555----------------------------
--55555555--77777777--55555555--7777--5555----------------
--55555555--77777777--33333333--7777--5555----------------
--33333333--55555555------------5555--3333----------------

Bridge [1x] Dist

----------------------------------------------------------
----------------------------------------------------------
----------------------------------------------------------
---9999--2222--7777--7xxxxxxxxxxxxxxx---------------------
---9999--2222--7777--7xxxxxxxxxxxxxxx---------------------
---7777--0000--5555—-5xxxxxxxxxxxxxxx---------------------

Bridge [2x] Dist

----------------------------------------------------------
----------------------------------------------------------
----------------------------------------------------------
------55-44-55----55-44-55----55-44-55-77-55-44-55--------
--------------------------33------------------------------
--33-----------55-----------------------------------------

Chorus [6x] Dist

----------------------------------------------------------
----------------------------------------------------------
----------------------55555555-55555555-------------------
--55555555--77777777--55555555-55555555-------------------
--55555555--77777777--33333333-33333333-------------------
--33333333--55555555--------------------------------------

End At Last Time

----------------------------------------------------------
----------------------------------------------------------
--5555--5555----------------------------------------------
--7777--5555----------------------------------------------
--7777--5555----------------------------------------------
--5555--3333----------------------------------------------

During The Last 6x Chorus

----------------------------------------------------------
----------------------------------------------------------
----------------------------------------------------------
--9-let-ring--7-let-ring--5-let-ring--2-0-2-5-------------
----------------------------------------------------------
----------------------------------------------------------

 
 plz rate
Comments